PrimaNota.ru - самый крупный в мире бесплатный архив песенных текстов, аккордов, табулатур и нот


Iced Earth - Horror Show (album) - таба, видео

Регистрация Запомнить меня
Войти через:  Facebook Google Twitter Vk Yandex Mail.ru

Iced Earth - Horror Show (album) - таба, видео

Печатать
Просмотров: 150
Уроки эстрадного вокала в Санкт-Петербурге
Band - Iced Earth
Album - Horror Show

Track Listings:
1. Wolf
2. Damien
3. Jack
4. Ghost Of Freedom
5. Im-Ho-Tep (Pharaoh's Curse)
6. Jeckyl And Hyde
7. Dragon's Child
8. Frankenstein
9. Dracula
10. Phantom Opera Ghost
11. Transylvania

----------------------------------------------

1. WOLF

Tuning: Eb

Intro
Guitar 1 (Clean)
eb|---------------------------------------|
Bb|---------------------------------------|
Gb|---------------------------------------|
Db|---------------------------------------|
Ab|----2--0-2-3--2--2-----2--0-2-3--2--2\-|
Eb|-0------------------0------------------|
                     Final note
eb|------------------|-----|
Bb|------------------|-----|
Gb|------------------|-----|
Db|------------------|-----|
Ab|----2--2-----2--2-|-----|
Eb|-1--------3-------|--0--|


Guitar 2 (Distortion)
eb|-----------------------------------------|
Bb|-----------------------------------------|
Gb|----9~---/12-10--9h10-9~--9h10-9~--(9)\--|
Db|-----------------------------------------|
Ab|-7---------------------------------------|
Eb|-----------------------------------------|

eb|-------------------------------------------|
Bb|-------------------------------------------|
Gb|-------------------------------------------|
Db|-12-10-9-10~--10-9----9~-----9-10-9--------|
Ab|-------------------12-----12--------12-11~-|
Eb|-------------------------------------------|

eb|--------------------------------|
Bb|--------------------------------|
Gb|--------------------------------|
Db|-------9~-----------------------|
Ab|-11h12-------12-11~--11h12-11~--|
Eb|--------------------------------|

eb|---------------------------------------------|
Bb|---------------------------------------------|
Gb|-------------------------------------9h10-9~-|
Db|-------9-10~----9-10-12-12~----10-12---------|
Ab|-11-12---------------------------------------|
Eb|---------------------------------------------|

eb|---------------------------------|
Bb|---------------------------------|
Gb|-/12-10--9h10-9~--9h10-9~--(9)\--|
Db|---------------------------------|
Ab|---------------------------------|
Eb|---------------------------------|

eb|-------------------------------------------|
Bb|-------------------------------------------|
Gb|-------------------------------------------|
Db|-12-10-9-10~--10-9----9~-----9-10-9--------|
Ab|-------------------12-----12--------12-11~-|
Eb|-------------------------------------------|

eb|--------------------------------|
Bb|--------------------------------|
Gb|--------------------------------|
Db|-------9~-----------------------|
Ab|-11h12-------12-11~--11h12-11~--|
Eb|--------------------------------|

eb|---------------------------------------------|
Bb|---------------------------------------------|
Gb|-------------------------------------9h10-9~-|
Db|-------9-10~----9-10-12-12~----10-12---------|
Ab|-11-12---------------------------------------|
Eb|---------------------------------------------|


Guitar 3 (Distortion)
eb|-----------------------------------------------|
Bb|----17~----/20-18--17h18-17~--17h18-17~--(17)\-|
Gb|-----------------------------------------------|
Db|-14--------------------------------------------|
Ab|-----------------------------------------------|
Eb|-----------------------------------------------|

eb|----------------------------------------------------|
Bb|-15-13-12-13~----13-12----12~-------12-13-12--------|
Gb|-----------------------14--------14----------14-13~-|
Db|----------------------------------------------------|
Ab|----------------------------------------------------|
Eb|----------------------------------------------------|

eb|--------------------------------|
Bb|-------12~----------------------|
Gb|-13h14--------14-13~--13h14-13~-|
Db|--------------------------------|
Ab|--------------------------------|
Eb|--------------------------------|

eb|-------------------------------------------------|
Bb|-------12-13~----12-13-15-15~----13-15-17h18-17~-|
Gb|-13-14-------------------------------------------|
Db|-------------------------------------------------|
Ab|-------------------------------------------------|
Eb|-------------------------------------------------|

eb|-------------------------------------|
Bb|-/20-18--17h18-17~--17h18-17~--(17)\-|
Gb|-------------------------------------|
Db|-------------------------------------|
Ab|-------------------------------------|
Eb|-------------------------------------|

eb|----------------------------------------------------|
Bb|-15-13-12-13~----13-12----12~-------12-13-12--------|
Gb|-----------------------14--------14----------14-13~-|
Db|----------------------------------------------------|
Ab|----------------------------------------------------|
Eb|----------------------------------------------------|

eb|--------------------------------|
Bb|-------12~----------------------|
Gb|-13h14--------14-13~--13h14-13~-|
Db|--------------------------------|
Ab|--------------------------------|
Eb|--------------------------------|

eb|-------------------------------------------------|
Bb|-------12-13~----12-13-15-15~----13-15-17h18-17~-|
Gb|-13-14-------------------------------------------|
Db|-------------------------------------------------|
Ab|-------------------------------------------------|
Eb|-------------------------------------------------|




Riff 1 (Solo Rhythm)                x2
eb|----------------------------------|
Bb|----------------------------------|
Gb|----------------------------------|
Db|----------------------------------|
Ab|-------2-----0-2-3-----2----------|
Eb|-0-000---000-------000---000-0000-|
    * *** * *** * * * *** * *** ****
eb|-----------------------------------|
Bb|-----------------------------------|
Gb|-----------------------------------|
Db|-----------------------------------|
Ab|-----------------------------------|
Eb|-1-111-1-111-1111-1-111-1-111-1111-|
    * *** * *** **** * *** * *** ****


Solo
eb|---------------------------------------------|
Bb|---------------------------------------------|
Gb|-9-----(9)~--10----9--(9)~-------------------|
Db|----------------------------7-9-10----9--12\-|
Ab|---------------------------------------------|
Eb|---------------------------------------------|

eb|---------------------------------------------------10h12-|
Bb|-------------------------------------------10h12h13------|
Gb|---------------7-9-10-9p7-----------9h10h12--------------|
Db|--------7-9-10------------10-7-9-10----------------------|
Ab|-7-8-10--------------------------------------------------|
Eb|---------------------------------------------------------|

Harmony part:
Guitar 1
eb|--------------------16tm-17tm-16p17p16-------------|
Bb|-18~--17~------18tm--------------------18-17~--15~-|
Gb|-----------17--------------------------------------|
Db|---------------------------------------------------|
Ab|---------------------------------------------------|
Eb|---------------------------------------------------|

eb|-------13~--12h13~-13~----------13h15h17-15b17r15----|
Bb|-15-17--------------------13h15----------------------|
Gb|-----------------------------------------------------|
Db|-----------------------------------------------------|
Ab|-----------------------------------------------------|
Eb|-----------------------------------------------------|

eb|------|
Bb|------|
Gb|------|
Db|--9~--|
Ab|------|
Eb|------|

Guitar 2
eb|---------------17tm-19tm-20tm-19p20p19p17----------|
Bb|-18~--17~---------------------------------21~--18~-|
Gb|-----------17--------------------------------------|
Db|---------------------------------------------------|
Ab|---------------------------------------------------|
Eb|---------------------------------------------------|

eb|----16-17~--16h17~-17~----------17h19h20-20p19p17-------|
Bb|-18-----------------------17h18------------------18-----|
Gb|---------------------------------------------------17---|
Db|-----------------------------------------------------19-|
Ab|--------------------------------------------------------|
Eb|--------------------------------------------------------|

eb|------|
Bb|------|
Gb|------|
Db|--14~-|
Ab|------|
Eb|------|

End solo


Riff 2
eb|-----------------------------------|
Bb|-----------------------------------|
Gb|-----------------------------------|
Db|-----------------------------------|
Ab|-------2-----0-2-3-----2-----0-2-3-|
Eb|-0-000---000-------000---000-------|
    * *** * *** * * * *** * *** * * *
  "Innocence tainted..."
eb|-------------------------------|
Bb|-------------------------------|
Gb|-------------------------------|
Db|-------------------------------|
Ab|-----2-----0-2-------3-----3-2-|
Eb|-000---000-----1-111---111-----|
    *** * *** * * * *** * *** * *
  "...pure lunacy..."

Riff 3
eb|---------------------------------|
Bb|---------------------------------|
Gb|---------------------------------|
Db|---------------------------------|
Ab|-------2-----2---------2-----2-3-|
Eb|-3-333---333---3-1-111---111-----|
    * *** * *** * * * *** * *** * *
   "Oh no..."
eb|---------------------------------|
Bb|---------------------------------|
Gb|---------------------------------|
Db|-------------2/3-------2-----3\2-|
Ab|-------2-----2/3-------2-----3\2-|
Eb|-0-000---000-----0-000---0-0-----|
    * *** * ***     * ***   * *
   "...this can't be..."


Play Riff 2   "His future concealed..."
Play Riff 3   "Oh no, this can't be..."


Riff 4
Guitar 1
eb|----0-----------------1--------------|
Bb|----0-----------------1--------------|
Gb|-------------------------------------|
Db|---------5----5----------------------|
Ab|-2-------3----2----3-------5----8----|
Eb|-0-----------------1-------3----6----|
   "Even a man..."

Guitar 2
eb|---------------------------------------------------------|
Bb|---------------------------------------------------------|
Gb|----------------------7-9--------7-9-7~----7h9p7---------|
Db|---9------9-10-9-7-10-----10~--------------------10-9-7~-|
Ab|-7------7------------------------------------------------|
Eb|---------------------------------------------------------|

Guitar 3
eb|--------------------------------------|
Bb|----------------------------15-17-----|
Gb|----16-------16-17-16-14-17-------17~-|
Db|-14-------14--------------------------|
Ab|--------------------------------------|
Eb|--------------------------------------|

eb|---------------------------------|
Bb|-15-17-15~----15h17p15-----------|
Gb|-----------------------17-16-14~-|
Db|---------------------------------|
Ab|---------------------------------|
Eb|---------------------------------|


Play Riff 2  "He who is bitten..."
Play Riff 3  "Oh no, this can't be..."
Play Riff 2  "The madness..."
Play Riff 3  "Oh no, this can't be..."
Play Riff 4  "Even a man..."


Riff 5    
Guitar 1
eb|-------------------------------|
Bb|-------------------------------|
Gb|-------------------------------|
Db|-------------------------------|
Ab|-----8---7---5---8---7---5-7-8-|
Eb|-0-0---0---0---0---0---0-------|
    * *   *   *   *   *   * * * *
                                   x2
eb|---------------------------------|
Bb|---------------------------------|
Gb|---------------------------------|
Db|---------------------------------|
Ab|-------8---7---5---8---7---5-7-8-|
Eb|-000-0---0---0---0---0---0-------|
    *** *   *   *   *   *   * * * * 
eb|------------------------------|
Bb|------------------------------|
Gb|------------------------------|
Db|-------------------10----9----|
Ab|-------8---7---5----7----7----|
Eb|-000-0---0---0---0--8----8----|
    *** *   *   *   *    

Guitar 2 (Comes in the second time)
eb|-------------------------------------|
Bb|-------------------------------------|
Gb|-------------------------------------|
Db|-------------------------------------|
Ab|-----12---10---9---12---10---9-10-12-|
Eb|-0-0----0----0---0----0----0---------|
    * *    *   *   *    *   * * *  *  *  x2
eb|---------------------------------------|
Bb|---------------------------------------|
Gb|---------------------------------------|
Db|---------------------------------------|
Ab|-------12---10---9---12---10---9-10-12-|
Eb|-000-0----0----0---0----0----0---------|
    *** *    *   *   *    *   * * *  *  *
eb|--------------------------------|
Bb|--------------------------------|
Gb|--------------------------------|
Db|---------------------10----9----|
Ab|-------12---10---9----7----7----|
Eb|-000-0----0----0---0--8----8----|
    *** *    *    *   *


Riff 6
eb|--------------------------|
Bb|--------------------------|
Gb|--------------------------|
Db|-----------------10----9--|
Ab|------------------7----7--|
Eb|-000-000-000-000--8----8--|
    *** *** *** ***

Ending to Riff 6
eb|---------------|
Bb|---------------|
Gb|---------------|
Db|---------------|
Ab|--2--4--7---9--|
Eb|--3--5--8--10--|


Play Riff 2   "Now comes the rampage..."
Play Riff 3   "Oh no, it's maddening..."
Play Riff 2   "A shot from the darkness..."
Play Riff 3   "Oh no, it's maddening..."
Play Riff 4   "Even a man..."
Play Riff 5   w/ harmony guitar

Ending to Riff 5
eb|---------------0--|
Bb|---------------0--|
Gb|---------------x--|
Db|---------------2--|
Ab|--2--4--7---9--2--|
Eb|--3--5--8--10--0--|

------------------------------------------------------

2. DAMIEN
Tuning: Eb

Riff 1 (6 string acoustics)
Guitar 1
eb|---------------------------------------|
Bb|---------------------------------------|
Gb|---------------------------------------|
Db|-9-xxxx-9-xxxx-9-9\-7-xxxx-7-xxxx-7-7\-|
Ab|-7-xxxx-7-xxxx-7-7\-5-xxxx-5-xxxx-5-5\-|
Eb|---------------------------------------|

eb|--------------------------------------------|
Bb|--------------------------------------------|
Gb|--------------------------------------------|
Db|-5-xxxx-5-xxxx-5-5--5-xxxx-5-xx-5-5-5---5/7-|
Ab|-3-xxxx-3-xxxx-3-3\-2-xxxx-2-xx-2-2-2/3-3/5-|
Eb|--------------------------------------------|


Guitar 2
eb|-----------------------------------------|
Bb|--------------------10-------------------|
Gb|---9-11---12---11--------12---9-11-12-11-|
Db|-9------9----9----9----9----9------------|
Ab|-----------------------------------------|
Eb|-----------------------------------------|

eb|--------------------------------------|
Bb|--------------------10----------------|
Gb|---9-11---12---11--------12---9-11-12-|
Db|-9------9----9----9----9----9---------|
Ab|--------------------------------------|
Eb|--------------------------------------|


Riff 2 (Distortion)
eb|-------------------------------|
Bb|-------------------------------|
Gb|-------------------------------|
Db|-3---3-2-----------------------|
Ab|-3---3-2-2-2-2-2-2-2-2-2-2-2-2-|
Eb|-1-0-1-0-0-0-0-0-0-0-0-0-0-0-0-|
      *     * * * * * * * * * * * 
          "So a beast resides in me..."
eb|-----------------------------------|
Bb|-----------------------------------|
Gb|-----------------------------------|
Db|-3-3/5-5\3-3-2---------------------|
Ab|-3-3/5-5\3-3-2-2-2-2-2-2-2-2-2-2-2-|
Eb|-1-1/3-3\1-1-0-0-0-0-0-0-0-0-0-0-0-|
                  * * * * * * * * * * 
             "Deep down I always knew..."


Riff 3
eb|----------------------------------|
Bb|----------------------------------|
Gb|----------------------------------|
Db|----------------------------------|
Ab|-2---------2---5-7-8-7-5---8-7~~\-|
Eb|-0--000000-0-5-----------0---a----|
    *  ****** * *           *
eb|--------------------------------|
Bb|--------------------------------|
Gb|--------------------------------|
Db|-------------------4-5-4--------|
Ab|-2---------2---5-7---------8~~\-|
Eb|-0--000000-0-5-----------0-a----|
    *  ****** * *           *


Lead into next section:
eb|------|
Bb|------|
Gb|------|
Db|--9\--|
Ab|--7\--|
Eb|------|


Play Riff 1   "As the boy becomes a man..."
Guitar 2 plays this instead:
eb|-----------------------------------------|
Bb|---------------12---10-------------------|
Gb|---9-11---12-------------12---9-11-12-11-|
Db|-9------9----9----9----9----9------------|
Ab|-----------------------------------------|
Eb|-----------------------------------------|

eb|--------------------------------------|
Bb|--------------------10----------------|
Gb|---9-11---12---11--------12---9-11-12-|
Db|-9------9----9----9----9----9---------|
Ab|--------------------------------------|
Eb|--------------------------------------|

eb|-----------------------------------------|
Bb|--------------------10-------------------|
Gb|---9-11---12---11--------12---9-11-12-11-|
Db|-9------9----9----9----9----9------------|
Ab|-----------------------------------------|
Eb|-----------------------------------------|

eb|--------------------------------------|
Bb|--------------------10----------------|
Gb|---9-11---12---11--------12---9-11-12-|
Db|-9------9----9----9----9----9---------|
Ab|--------------------------------------|
Eb|--------------------------------------|



Play Riff 2   "I embrace the hounds of Hell..."
Play Riff 3   "Ahhhh..."


Riff 4
Guitar 1
eb|---------------------------------------------------|
Bb|---------------------------------------------------|
Gb|---------------------------------------------------|
Db|-9---------9---------9-9\-7---------7---------7-7\-|
Ab|-7---------7---------7-7\-5---------5---------5-5\-|
Eb|---0-0-0-0---0-0-0-0--------0-0-0-0---0-0-0-0------|
      * * * *   * * * *        * * * *   * * * * 
   "When the Jews return to Zion..."
eb|------------------------------------------------------|
Bb|------------------------------------------------------|
Gb|------------------------------------------------------|
Db|-5---------5---------5-5--5---------5-----5-5-5---5/7-|
Ab|-3---------3---------3-3\-2---------2-----2-2-2/3-3/5-|
Eb|---0-0-0-0---0-0-0-0--------0-0-0-0---0-0-------------|
      * * * *   * * * *        * * * *   * *  
   "...comet, fills the sky..."

Guitar 2
eb|-----------------------------------------|
Bb|--------------------10-------------------|
Gb|---9-11---12---11--------12---9-11-12-11-|
Db|-9------9----9----9----9----9------------|
Ab|-----------------------------------------|
Eb|-----------------------------------------|

eb|--------------------------------------|
Bb|--------------------10----------------|
Gb|---9-11---12---11--------12---9-11-12-|
Db|-9------9----9----9----9----9---------|
Ab|--------------------------------------|
Eb|--------------------------------------|


Play Riff 3   "Ohhh..."


Lead into next section:
eb|----------------|
Bb|----------------|
Gb|----------------|
Db|--9-------------|
Ab|--7--[let ring]-|
Eb|--0-------------|



Bass interlude


Play Riff 4  Solo Rhythm

Solo
Guitar 1
eb|-------------------------------------------|
Bb|-------------------------------------------|
Gb|-/9~----(9)\--/11~----(11)\--/12~----(12)\-|
Db|-------------------------------------------|
Ab|-------------------------------------------|
Eb|-------------------------------------------|

eb|-----------------------------------|
Bb|-/12~--13-12~----------------------|
Gb|-----------------/9-11-12~--11-9~\-|
Db|-----------------------------------|
Ab|-----------------------------------|
Eb|-----------------------------------|

eb|-------------17-------------------------|
Bb|-/12-12-/17~-----20~--19~-------20--19~-|
Gb|---------------------------19~----------|
Db|----------------------------------------|
Ab|----------------------------------------|
Eb|----------------------------------------|

eb|-19-20--17-20--15-20--19-20--17-20-19p15------15-|
Bb|----------------------------------------17--17---|
Gb|------------------------------------------16-----|
Db|-------------------------------------------------|
Ab|-------------------------------------------------|
Eb|-------------------------------------------------|

eb|-----------------------------------17-19-22b24~~-|
Bb|-/19~--20-20~-------------17-19-20---------------|
Gb|-----------------16-17-19------------------------|
Db|-------------------------------------------------|
Ab|-------------------------------------------------|
Eb|-------------------------------------------------|

Guitar 2
eb|-------------------------------------------|
Bb|-------------------------------------------|
Gb|-/9~----(9)\-------------------------------|
Db|--------------/12~----(12)\--/10~----(10)\-|
Ab|-------------------------------------------|
Eb|-------------------------------------------|

eb|-------------------------------|
Bb|-------------------------------|
Gb|-------------------------------|
Db|-/9~--10-9~--------------------|
Ab|---------------/7-9-10~--9-7~\-|
Eb|-------------------------------|

eb|---------------------------------------|
Bb|---------------------------------------|
Gb|------------14--12~--11~-------12--11~-|
Db|-/9-9-/14~----------------12~----------|
Ab|---------------------------------------|
Eb|---------------------------------------|

eb|-------------------------------------------|
Bb|-12-13-10-13-8-13-12-13-10-13-12p8-------8-|
Gb|-----------------------------------9---9---|
Db|-------------------------------------9-----|
Ab|-------------------------------------------|
Eb|-------------------------------------------|

eb|-----------------------------------------------|
Bb|----------------------------------13-15-19b20~-|
Gb|-/11--12-12~-------------12-14-16--------------|
Db|----------------13-14-16-----------------------|
Ab|-----------------------------------------------|
Eb|-----------------------------------------------|


End solo

Play Riff 2   "Now disciples of the Watch..."
Play Riff 3   "...Christ!"
Play Riff 4   "When the Jews return to Zion..."

Last bar of Riff 4:
eb|--------------------------------------------------|
Bb|--------------------------------------------------|
Gb|--------------------------------------------------|
Db|-5---------5---------5-5--5---------5-----5-5-----|
Ab|-3---------3---------3-3\-2---------2-----2-2-----|
Eb|---0-0-0-0---0-0-0-0--------0-0-0-0---0-0-----X\\-|
      * * * *   * * * *        * * * *   * *  
    "...till man exists, no more..."


Play Riff 2  Ending solo rhythm


Ending solo:

Guitar 1              x2
eb|-12-0-0-12-0-0-12-0-|
Bb|--------------------|
Gb|--------------------|
Db|--------------------|
Ab|--------------------|
Eb|--------------------|
                      x2
eb|-10-0-0-10-0-0-10-0-|
Bb|--------------------|
Gb|--------------------|
Db|--------------------|
Ab|--------------------|
Eb|--------------------|
                   x2
eb|-8-0-0-8-0-0-8-0-|
Bb|-----------------|
Gb|-----------------|
Db|-----------------|
Ab|-----------------|
Eb|-----------------|
                   x2
eb|-7-0-0-7-0-0-7-0-|
Bb|-----------------|
Gb|-----------------|
Db|-----------------|
Ab|-----------------|
Eb|-----------------|

Guitar 2 (Comes in after first two sections
of guitar 1 above) x2 
eb|-5-0-0-5-0-0-5-0-|
Bb|-----------------|
Gb|-----------------|
Db|-----------------|
Ab|-----------------|
Eb|-----------------|
                   x2
eb|-4-0-0-4-0-0-4-0-|
Bb|-----------------|
Gb|-----------------|
Db|-----------------|
Ab|-----------------|
Eb|-----------------|

(Guitar 2 plays notes in () )
eb|-----------------------------------------------------|
Bb|--10101010-9999-13131313-12121212-15151515-13131313--|
Gb|-(10101010-9999-14141414-13131313-16161616-14141414)-|
Db|-----------------------------------------------------|
Ab|-----------------------------------------------------|
Eb|-----------------------------------------------------|

eb|-----------------------------------------------------|
Bb|--12121212-13131313-10101010-9999-13131313-12121212--|
Gb|-(13131313-14141414-10101010-9999-14141414-13131313)-|
Db|-----------------------------------------------------|
Ab|-----------------------------------------------------|
Eb|-----------------------------------------------------|

eb|--------------------------|
Bb|--13131313-15151515-17~~--|
Gb|-(14141414-16161616-17~~)-|
Db|--------------------------|
Ab|--------------------------|
Eb|--------------------------|

Guitar 1
eb|----------------------------------------|
Bb|----------------------------------------|
Gb|-10-10-9~----7-7/9-9/10-10/12-10/12\9~~-|
Db|----------------------------------------|
Ab|----------------------------------------|
Eb|----------------------------------------|

Harmony guitars that come in later:
Guitar 2
eb|----------------------------------------|
Bb|-10-10-9~----7-7/9-9/10-10/12-10/12\9~~-|
Gb|----------------------------------------|
Db|----------------------------------------|
Ab|----------------------------------------|
Eb|----------------------------------------|

Guitar 3
eb|---------------------------------------------|
Bb|-13-13-12~---10-10/12-12/13-13/15-13/15\12~~-|
Gb|---------------------------------------------|
Db|---------------------------------------------|
Ab|---------------------------------------------|
Eb|---------------------------------------------|

End solo


Ending (Piano arranged for guitar, octave lower)
eb|----12-14----15----14----17----15----12-14-15-14-|
Bb|-12-------12----12----12----12----12-------------|
Gb|-------------------------------------------------|
Db|-------------------------------------------------|
Ab|-------------------------------------------------|
Eb|-------------------------------------------------|

eb|----12-14----15----14----17----15----12-14-15--|
Bb|-12-------12----12----12----12----12-----------|
Gb|-----------------------------------------------|
Db|-----------------------------------------------|
Ab|-----------------------------------------------|
Eb|-----------------------------------------------|

Fade out is piano an octave lower, or just the actual
notes from above.

------------------------------------------------------------

3. JACK

Tuning: Eb

Riff 1
Guitar 1
eb|-----------------------------------|
Bb|-----------------------------------|
Gb|-----------------------------------|
Db|-----------------------------------|
Ab|-----------------------------------|
Eb|-00000000000000000000000000...--\\-|
    **************************
Guitar 2
eb|---------------------------------------|
Bb|---------------------------------------|
Gb|---------------------------------------|
Db|-9999...-10101010....--7777...-9999...-|
Ab|---------------------------------------|
Eb|---------------------------------------|
    ****     * * * *      ****    ****
eb|-----------------------------------|
Bb|-----------------------------------|
Gb|-----------------------------------|
Db|-5555...-77777777------------------|
Ab|------------------55555555-7777...-|
Eb|-----------------------------------|
    ****    ******** ******** ****

Riff 2
Guitar 1
eb|---------------------------------------|
Bb|---------------------------------------|
Gb|---------------------------------------|
Db|-----10---9---7---12---10---7-9-10-----|
Ab|------8---7---5---10----8---5-7--8-----|
Eb|-0-0----0---0---0----0----0--------000-|
    * *    *   *   *    *    * * *    ***
eb|---------------------------------|
Bb|---------------------------------|
Gb|---------------------------------|
Db|---10---9---7--------------------|
Ab|----8---7---5---10---9---7-5-4-2-|
Eb|-0----0---0---0--8-0-7-0-5-3-2-0-|
    *    *   *   *    *   * * * * 

Guitar 2
eb|---------------------------------------|
Bb|---------------------------------------|
Gb|---------------------------------------|
Db|-9999...-10101010....--7777...-9999...-|
Ab|---------------------------------------|
Eb|---------------------------------------|
    ****     * * * *      ****    ****
eb|----------------------------------------|
Bb|----------------------------------------|
Gb|----------------------------------------|
Db|-5555...-77777777-----------------------|
Ab|------------------55555555-7777...7777\-|
Eb|----------------------------------------|
    ****    ******** ******** ****


Riff 3
eb|---------------------------------|
Bb|---------------------------------|
Gb|---------------------------------|
Db|-----5-4---4-5-------5-4---4-5---|
Ab|-----3-2-0-2-3-2-----3-2-0-2-3-2-|
Eb|-0-0-----------0-0-0-----------0-|
    * * * * * * *   * * * * * * *
eb|--------------------------------|
Bb|--------------------------------|
Gb|--------------------------------|
Db|-----5-4---4--------------------|
Ab|-----3-2-0-2-0-5--5-5-5-5\3-3-2-|
Eb|-0-0-----------3--3-3-3-3\1-1-0-|
    * * * * * * *    * * *


Riff 2a
eb|---------------------------------------|
Bb|---------------------------------------|
Gb|---------------------------------------|
Db|-----10---9---7---12---10---7-9-10-----|
Ab|------8---7---5---10----8---5-7--8-----|
Eb|-0-0----0---0---0----0----0--------000-|
    * *    *   *   *    *    * * *    ***
   "I..."
eb|---------------------------------|
Bb|---------------------------------|
Gb|---------------------------------|
Db|---10---9---7--------------------|
Ab|----8---7---5---10---9---7-5-4-2-|
Eb|-0----0---0---0--8-0-7-0-5-3-2-0-|
    *    *   *   *    *   * * * * 
   "...bastard son..."


Riff 3a
Guitar 1
eb|---------------------------------|
Bb|---------------------------------|
Gb|---------------------------------|
Db|-----5-4---4-5-------5-4---4-5---|
Ab|-----3-2-0-2-3-2-----3-2-0-2-3-2-|
Eb|-0-0-----------0-0-0-----------0-|
    * * * * * * *   * * * * * * *
eb|--------------------------------|
Bb|--------------------------------|
Gb|--------------------------------|
Db|-----5-4---4--------------------|
Ab|-----3-2-0-2-0-5--5-5-5-5\3-3-2-|
Eb|-0-0-----------3--3-3-3-3\1-1-0-|
    * * * * * * *    * * * 

Guitar 2
eb|--------------------------------|
Bb|--------------------------------|
Gb|-9---12---11---12----12\10-10\9-|
Db|--------------------------------|
Ab|-7---10----9---10----10\-8--8\7-|
Eb|--------------------------------|

eb|--------------------------------------|
Bb|--------------------------------------|
Gb|-9---12---/14--11---12---12\10-10\9-9-|
Db|--------------------------------------|
Ab|-7---10---/12---9---10---10\-8--8\7-7-|
Eb|--------------------------------------|


Play Riff 2a   "I scream out to you..."


Riff 4
Guitar 1
eb|-----------------------------------|
Bb|-----------------------------------|
Gb|-----------------------------------|
Db|-----------------------------------|
Ab|-------------------------3-3-3-2-2-|
Eb|-0-0-0-0-0-0-0-0-0-0-0-0-1-1-1-0-0-|
    * * * * * * * * * * * *
  "I cut you once..."
eb|---------------------------------|
Bb|---------------------------------|
Gb|---------------------------------| ----|
Db|---------------------------------|     |
Ab|-------2-------3-------3/5\3-2-2-|     |
Eb|-0-000-0-0-0-0-1--0-0--1/3\1-0-0-|     |
    * ***   * * *    * *                  |
  "I cut you twice..."                    |--- Play 3x
eb|---------------------------------|     |
Bb|---------------------------------|     |
Gb|---------------------------------|  ---|
Db|---------------------------------|
Ab|-------2---------------3-3-3-2-2-|
Eb|-0-000-0-0-0-0-0-0-0-0-1-1-1-0-0-|
    * ***   * * * * * * * 
   "You're my midnight..."
eb|-----------------------------|
Bb|-----------------------------|
Gb|-----------------------------|
Db|-----------------------------|
Ab|-------2-------3-------3/5\3-|
Eb|-0-000-0-0-0-0-1--0-0--1/3\1-|
    * ***   * * *    * *
  "...now you're gone..."

Guitar 2
eb|-----------------------------------|
Bb|-----------------------------------|
Gb|-----------------------------------|
Db|-----------------------------------|
Ab|-------------------------3-3-3-2-2-|
Eb|-0-0-0-0-0-0-0-0-0-0-0-0-1-1-1-0-0-|
    * * * * * * * * * * * *
  "I cut you once..."
eb|------------------------------------|
Bb|------------------------------------|
Gb|------------------------------------| --|
Db|----------------------10/12\10-9-9\-|   |
Ab|-------2-------3-------8/10\-8-a-a--|   |
Eb|-0-000-0-0-0-0-1--0-0---------------|   |
    * ***   * * *    * *                   |
  "I cut you twice..."                     |--- Play 3x
eb|-------------------------------|        |
Bb|-------------------------------|        |
Gb|-------------------------------|  ------|
Db|-------------------------------|
Ab|-----2---------------3-3-3-2-2-|
Eb|-000-0-0-0-0-0-0-0-0-1-1-1-0-0-|
    ***   * * * * * * * 
   "You're my midnight..."
eb|-------------------------------|
Bb|-------------------------------|
Gb|-------------------------------|
Db|----------------------10/12\10-|
Ab|-------2-------3-------8/10\-8-|
Eb|-0-000-0-0-0-0-1--0-0----------|
    * ***   * * *    * *
  "...now you're gone..."


Play Riff 3a  Guitar 1 ends with an extra Eb5 chord.


Riff 5 (12 string acoustic)                x4
eb|-----------------------------------------|-----|
Bb|-----------------------------------------|-----|
Gb|-----------------------------------------|-----|
Db|----10-9-------10-7----------------------|-----|
Ab|-7----------7----------7--10-9--7--5--7--|--7--|
Eb|-0----------0----------0-----------------|--0--|
  "I've seen the rain..."




Play Riff 2a   "Ahh, now..."
Play Riff 4    "I cut you once..."

Ending:
Guitar 1
eb|------------------------------|
Bb|------------------------------|
Gb|------------------------------|
Db|------------------------------|
Ab|-------2-------3------3/5\3-2-|
Eb|-0-000-0-0-0-0-1--0-0-1/3\1-0-|
    * ***   * * *    * *            

Guitar 2
eb|----------------------------------|
Bb|----------------------------------|
Gb|----------------------------------|
Db|----------------------10/12\10-9\-|
Ab|-------2-------3-------8/10\-8-7\-|
Eb|-0-000-0-0-0-0-1--0-0-------------|
    * ***   * * *    * *

------------------------------------------------

4. GHOST OF FREEDOM
Tuning: Eb

Riff 1  (Acoustic)
eb|------0----------------------|
Bb|---------1-----------3--1----|
Gb|----2------2-------0-------0-|
Db|----2------------2-----------|
Ab|-0-----------0-3-------------|
Eb|-----------------------------|
  "Every time you think about it..."
eb|------3--------------------0---|
Bb|---------0-----------1-3-1-0h1-|
Gb|-----------0-------0---0-0-0---|
Db|----0--------0---2-------------|
Ab|----2----------3---------------|
Eb|-3-----------------------------|
  "It tears you up inside..."


Riff 2  (Acoustic)
Guitar 1
eb|------0--0-0-0----------------|
Bb|------1--1-1-1-------3--1-----|
Gb|------2--2-2-2--0----0--0--0--|
Db|------2--2-2-2--2----2--2--2--|
Ab|-0----0--0-0-0--3----3--3--3--|
Eb|------------------------------|
  "Here I'll stand..."
eb|----------0--0-0------0--------|
Bb|----------0--0-0------0--------|
Gb|----------0--0-0------0--------|
Db|-------------------------------|
Ab|-----------------------------2-|
Eb|--0----0---------0--0----0-3---|
  "Here I'll stand..."


Guitar 2 (Clean)
eb|-------------------------------|
Bb|---12--------------------------|
Gb|-9----------9-10--10/12--10-9~-|
Db|---------12--------------------|
Ab|-------------------------------|
Eb|-------------------------------|

eb|---------------------------------------------------|
Bb|---12----------------------------------------------|
Gb|-9-------------------------------12-10-9-10--9-----|
Db|------------9-10-10/12--10-9~------------------12--|
Ab|---------12----------------------------------------|
Eb|---------------------------------------------------|


Play Riff 1  "Every night you go to sleep..."
Play Riff 2  "Here I'll stand..."


Riff 3 (Distortion, Solo Rhythm)
eb|------------------------------------------------|
Bb|------------------------------------------------|
Gb|------------------------------------------------|
Db|-2--------5------5/7--7-------------------------|
Ab|-0--------3--3-0-3/5--5--2--------3-2---2-------|
Eb|-------------------------0----0-0-----5----5-3~-|
                * *              * *             x7
eb|-----------------------------------------------|------|
Bb|-----------------------------------------------|------|
Gb|-----------------------------------------------|------|
Db|-2--------5------5/7--7------------------------|------|
Ab|-0----0-0-3--3-0-3/5--5-2--------3-2---2-------|--7\--|
Eb|------------------------0----0-0-----5----5-3~-|--5\--|
         * *    * *             * *


Solo
Guitar 1
Eb|-----------------------------------------|
Bb|-----------------------------------------|
Gb|-----16------------16----16b17-16b17-16~-|
Db|-/14----14~----/14----14-----------------|
Ab|-----------------------------------------|
Eb|-----------------------------------------|

Eb|-----------------------------------------|
Bb|-----------------------------------------|
Gb|-----16------------16----17b19-17b19-17~-|
Db|-/14----14~----/14----14-----------------|
Ab|-----------------------------------------|
Eb|-----------------------------------------|

Eb|-----------------------------------------|
Bb|-----------------------------------------|
Gb|-----16------------16----16b17-16b17-16~-|
Db|-/14----14~----/14----14-----------------|
Ab|-----------------------------------------|
Eb|-----------------------------------------|

eb|----------------------------------------|
Bb|-----------------15----17-17~--17-20-17-|
Gb|-----16----17---------------------------|
Db|-/14----14----14----14------------------|
Ab|----------------------------------------|
Eb|----------------------------------------|

eb|------------------------------------------------|
Bb|-20b22----20p17-20b22~----20b22----20p17-20b22~-|
Gb|------------------------------------------------|
Db|------------------------------------------------|
Ab|------------------------------------------------|
Eb|------------------------------------------------|

eb|-20b22~--{20}~--20-19-19-20-19-17-19-17-17--------|
Bb|-------------------------------------------20b22~-|
Gb|--------------------------------------------------|
Db|--------------------------------------------------|
Ab|--------------------------------------------------|
Eb|--------------------------------------------------|

eb|-17--17-17---------------------17-17-----------------|
Bb|-----------15b17-15p13-15~--13-------15b17-15p13-15~-|
Gb|-----------------------------------------------------|
Db|-----------------------------------------------------|
Ab|-----------------------------------------------------|
Eb|-----------------------------------------------------|

eb|-----------------15---------------------------|
Bb|-13-15b17-15b17-----15b17--15p13-15b17-15b17~-|
Gb|----------------------------------------------|
Db|----------------------------------------------|
Ab|----------------------------------------------|
Eb|----------------------------------------------|

Guitar 2
Eb|-----------------------------------------|
Bb|-----17------------17----17b18-17b18-17~-|
Gb|-/14----14~----/14----14-----------------|
Db|-----------------------------------------|
Ab|-----------------------------------------|
Eb|-----------------------------------------|

Eb|-----------------------------------------|
Bb|-----17------------17----18b20-18b20-17~-|
Gb|-/14----14~----/14----14-----------------|
Db|-----------------------------------------|
Ab|-----------------------------------------|
Eb|-----------------------------------------|

Eb|-----------------------------------------|
Bb|-----17------------17----17b18-17b18-17~-|
Gb|-/14----14~----/14----14-----------------|
Db|-----------------------------------------|
Ab|-----------------------------------------|
Eb|-----------------------------------------|

eb|-------------------------------17-19-17-|
Bb|-----17----18----20----22-22~-----------|
Gb|-/14----14----14----14------------------|
Db|----------------------------------------|
Ab|----------------------------------------|
Eb|----------------------------------------|

eb|-19b20----19p17-19b20~----19b20----19p17-19b20~-|
Bb|------------------------------------------------|
Gb|------------------------------------------------|
Db|------------------------------------------------|
Ab|------------------------------------------------|
Eb|------------------------------------------------|

eb|-24b25~--{24}~--24-22-22-24-22-20-22-20-20--------|
Bb|-------------------------------------------24b25~-|
Gb|--------------------------------------------------|
Db|--------------------------------------------------|
Ab|--------------------------------------------------|
Eb|--------------------------------------------------|

eb|-20--20-20---------------------20-20-----------------|
Bb|-----------18b20-18p17-18~--17-------18b20-18p17-18~-|
Gb|-----------------------------------------------------|
Db|-----------------------------------------------------|
Ab|-----------------------------------------------------|
Eb|-----------------------------------------------------|

eb|-----------------19---------------------------|
Bb|-17-19b21-19b21-----19b21--19p17-19b21-19b21~-|
Gb|----------------------------------------------|
Db|----------------------------------------------|
Ab|----------------------------------------------|
Eb|----------------------------------------------|

End Solo


Play Riff 1   "You speak to me..."
Play Riff 2   "Here we stand..."

Riff 3a (Distortion)
eb|-----------------------------------------------|
Bb|-----------------------------------------------|
Gb|-----------------------------------------------|
Db|-2--------5------5/7--7------------------------|
Ab|-0--------3----0-3/5--5-2--------3-2---2-------|
Eb|------------------------0----0-0-----5----5-3~-|
                  *             * *
   "Don't tread on me..."

Play this til fade out:
eb|-----------------------------------------------|
Bb|-----------------------------------------------|
Gb|-----------------------------------------------|
Db|-2--------5------5/7--7------------------------|
Ab|-0----0-0-3--3-0-3/5--5-2--------3-2---2-------|
Eb|------------------------0----0-0-----5----5-3~-|
         * *    * *             * *


Ending leads:
Guitar 1
eb|--------------------------------------------------------|
Bb|----12--------------------------------------------------|
Gb|-/9----9~-------9-10--10/12--10-9~----10-9----9---------|
Db|-------------12----------------------------12----12-10~-|
Ab|--------------------------------------------------------|
Eb|--------------------------------------------------------|

eb|--------------------------------------------------------|
Bb|----12--------------------------------------------------|
Gb|-/9----9~-----------------------------10-9----9---------|
Db|----------------9-10--10/12--10-9~---------12----12-10~-|
Ab|-------------12-----------------------------------------|
Eb|--------------------------------------------------------|

Guitar 2
eb|--------------------------------------------------------------|
Bb|-----17-------------------------------------------------------|
Gb|-/14----14~-------12-14--14/16--14-12~----14-12-10-12--10-----|
Db|---------------15-----------------------------------------14~-|
Ab|--------------------------------------------------------------|
Eb|--------------------------------------------------------------|

eb|------------------------------------------------------------|
Bb|-----17-----------------------------------------------------|
Gb|-/14----14~-------9-10--10/12--10-9~----14-12-10-12--10-----|
Db|---------------12---------------------------------------14~-|
Ab|------------------------------------------------------------|
Eb|------------------------------------------------------------|

------------------------------------------------------------------

5. IM-HO-TEP (PHARAOH'S CURSE)
Tuning: Eb

Riff 1
Guitar 1
eb|---------------------------|
Bb|---------------------------|
Gb|---------------------------|
Db|-----------7----------7-6--|
Ab|-2---------5----------8-7--|
Eb|-0---------5--------0------|
                       *
eb|------0--------------------|
Bb|------0--------------------|
Gb|---------------------------|
Db|-----------7----------7-6--|
Ab|-2---------5----------8-7--|
Eb|-0---------5--------0------|
                       *

Guitar 2 (Final time omit ending slide)
eb|-------------------------------|
Bb|-------------------------------|
Gb|-------------------------------|
Db|---9-9~--9-9-6-7-/9~--9-9h10-9-|
Ab|-7-----------------------------|
Eb|-------------------------------|

eb|-------------------------------|
Bb|-------------------------------|
Gb|-------------------------------|
Db|-7-6-7-/7~----9-7h9p7-6--------|
Ab|------------------------8-7~~\-|
Eb|-------------------------------|

Guitar 3 (Final time omit ending slide)
eb|----------------------------------------|
Bb|---12-12~--12-12-9-10-/12~--12-12h13-12-|
Gb|-9--------------------------------------|
Db|----------------------------------------|
Ab|----------------------------------------|
Eb|----------------------------------------|

eb|---------------------------------------|
Bb|-10-9-10-/10~----12-10h12p10-9---------|
Gb|-------------------------------10-9~~\-|
Db|---------------------------------------|
Ab|---------------------------------------|
Eb|---------------------------------------|



Riff 2
Guitar 1
eb|-------------------------------|
Bb|-------------------------------|
Gb|-------------------------------|
Db|-------------------------------|
Ab|-2-----5-----4-----7-----5-----|
Eb|-0-----3-----2-----5-----3-----|

Guitar 2
eb|----------------------------------|
Bb|----------------------------------|
Gb|----------------------------------|
Db|----------7-----------------------|
Ab|---7-8-10---10-8-7---7-8-7-5-7-7~-|
Eb|-0-----------------0--------------|
    *                 *
eb|----------------------------------|
Bb|----------------------------------|
Gb|----------------------------------|
Db|----------7-----------------------|
Ab|---7-8-10---10-8-7---7-8-7-7-5-5~-|
Eb|-0-----------------0--------------|
    *                 *


Riff 3
Guitar 1                       Final chord
eb|----------------------------|-----|
Bb|----------------------------|-----|
Gb|----------------------------|-----|
Db|----------------------------|-----|
Ab|-2-2--2--2--2--2-2--2--2--2-|--2--|
Eb|-0-0--0--0--0--0-0--0--0--0-|--0--|
    * *  *  *  *  * *  *  *  * 
  "Time is the bond of mortal life..."

Guitar 2
eb|-------------------------|
Bb|-------------------------|
Gb|-------------------------|
Db|---9-10-12-10---9-10--9--|
Ab|---7--8-10--8---7--8--7--|
Eb|-0------------0----------|
    *            *
eb|-------------------------|
Bb|-------------------------|
Gb|-------------------------|
Db|---9-10--7-10---9-10--9--|
Ab|---7--8--5--8---7--8--7--|
Eb|-0------------0----------|
    *            *


Riff 4
Guitar 1                               
eb|---------------------------|
Bb|---------------------------|
Gb|---------------------------|
Db|---------------------------|
Ab|-------------------------5-| <- At end of riff play the G5
Eb|-0000000000000000-...-00-3-|
    ****************     ** 
  "Death is but a threshold..."

Guitar 2                                       x2
eb|---------------------------------------------|
Bb|---------------------------------------------|
Gb|---------------------------------------------|
Db|-10----9--------12---10-------7-10----9----5-|
Ab|--8----7--------10----8-------5--8----7----3-|
Eb|-----0--------------0---------------0----0---|
        *              *               *    *
eb|---------------------|
Bb|---------------------|
Gb|---------------------|
Db|-10----9-------------|
Ab|--8----7-----------5-|
Eb|-----0----------00-3-|
        *          **

Play Riff 3   "Love was the curse..."
Play Riff 4   "Death is but a threshold..."

End Riff 4 with a long slide instead of the
last chord for Guitar 1.

Riff 5 (Solo Rhythm)
eb|--------------------------------|
Bb|--------------------------------|
Gb|--------------------------------|
Db|-------------4-7----------------|
Ab|-2------2----5-8--2------2----5-|
Eb|-0-00-3-0--0------0-00-3-0--0-3-|
      ** *    * * *    ** *    *
eb|----------------------------------|
Bb|----------------------------------|
Gb|----------------------------------|
Db|-7------7------7-10-9-------------|
Ab|-5-5555-5-5555-5--8-7------2----5-|
Eb|----------------------00-3-0--0-3-|
      ****   ****        ** *    *

Solo
eb|-------------------------------------------------|
Bb|-12h13p12----------12h13p12----------12----12-13-|
Gb|----------14-13-14----------14-13-14----14-------|
Db|-------------------------------------------------|
Ab|-------------------------------------------------|
Eb|-------------------------------------------------|

eb|----------------------------16p13p12----------------|
Bb|-15-13-12h13p12----12----------------15p13p12-------|
Gb|----------------14----14-13------------------14p13~-|
Db|----------------------------------------------------|
Ab|----------------------------------------------------|
Eb|----------------------------------------------------|

eb|-0-12-13-0-13-16-0-16-17-0-17-19-0-0-20-0-|
Bb|------------------------------------------|
Gb|------------------------------------------|
Db|------------------------------------------|
Ab|------------------------------------------|
Eb|------------------------------------------|

eb|-19-0-17-0-16-0-19-0-17-0-16\13-13h16p13-12/-|
Bb|---------------------------------------------|
Gb|---------------------------------------------|
Db|---------------------------------------------|
Ab|---------------------------------------------|
Eb|---------------------------------------------|

Harmony section:

Higher guitar:
eb|-19-20--17-20--16-20-----20--19-20--17-20--16-20-----20-|
Bb|----------------------18--------------------------18----|
Gb|--------------------------------------------------------|
Db|--------------------------------------------------------|
Ab|--------------------------------------------------------|
Eb|--------------------------------------------------------|

eb|----20--17-20--16-20-16-----------------|
Bb|-17----------------------18--17---------|
Gb|---------------------------------17--16-|
Db|----------------------------------------|
Ab|----------------------------------------|
Eb|----------------------------------------|

eb|-----------------------------------------|
Bb|-----------------------------------------|
Gb|-14~----14h16h17----16--14-14h16p14-13~--|
Db|-----------------------------------------|
Ab|-----------------------------------------|
Eb|-----------------------------------------|

Lower guitar:
eb|--------------------------------------------------------|
Bb|-15-17--13-17--12-17-----17--15-17--13-17--12-17-----17-|
Gb|----------------------14--------------------------14----|
Db|--------------------------------------------------------|
Ab|--------------------------------------------------------|
Eb|--------------------------------------------------------|

eb|----------------------------------------|
Bb|----17--15-17--13-17-12-----------------|
Gb|-13----------------------14--13---------|
Db|---------------------------------15--14-|
Ab|----------------------------------------|
Eb|----------------------------------------|

eb|-----------------------------------------|
Bb|-----------------------------------------|
Gb|-----------------------------------------|
Db|-12~----12h14h15----14--12-12h14p12------|
Ab|------------------------------------14~--|
Eb|-----------------------------------------|


Both play ending:
eb|-19p17--17-20p17-19p17-16------------------|
Bb|------18------------------18p17------------|
Gb|--------------------------------19-19b21~~-|
Db|-------------------------------------------|
Ab|-------------------------------------------|
Eb|-------------------------------------------|

End Solo

Riff 3a
Guitar 1                       Final chord
eb|----------------------------|-----|
Bb|----------------------------|-----|
Gb|----------------------------|-----|
Db|----------------------------|-----|
Ab|-2-2--2--2--2--2-2--2--2--2-|--2--|
Eb|-0-0--0--0--0--0-0--0--0--0-|--0--|
    * *  *  *  *  * *  *  *  * 
  "Dawn shines a light..."

Guitar 2
eb|-------------------|
Bb|-------------------|
Gb|-------------------|
Db|---2-3-5-3---2-3-2-|
Ab|---2-3-5-3---2-3-2-|
Eb|-0---------0-------|
    *         *
eb|-------------------|
Bb|-------------------|
Gb|-------------------|
Db|---2-3-0-3---2-3-2-|
Ab|---2-3-0-3---2-3-2-|
Eb|-0---------0-------|
    *         *


Play Riff 4  "Death is but a threshold..."
Play Riff 1

Ending chord:
eb|-----|
Bb|-----|
Gb|-----|
Db|-----|
Ab|--2--|
Eb|--0--|

--------------------------------------------------------

6. JECKYL AND HYDE

Tuning: Eb


Riff 1  (12 String Acoustic)
eb|-----------------------------|
Bb|-------0-----------0---------|
Gb|-----0---0-------0---0-------|
Db|---4-------4---4-------4-----|
Ab|-2-----------2---------------|
Eb|-------------------------3-2-|

                            Final note
eb|-------------------------|-----|
Bb|-------------------------|-----|
Gb|-------0-----------0-----|-----|
Db|-----0---0-------0---0---|-----|
Ab|---3-------3---3-------3-|--2--|
Eb|-1-----------1-----------|-----|



Riff 2 (Distortion, Solo Rhythm)
eb|---------------------------------|
Bb|---------------------------------|
Gb|-----------4---------------------|
Db|-----4-----------5-----4---------|
Ab|-2-2---222---2-2---2-2---2-2-5-5-|
Eb|---------------------------------|
    * *   ***   * *   * *   * * 
eb|---------------------------------|
Bb|---------------------------------|
Gb|-----------4---------------------|
Db|-----4-----------5-----4---------|
Ab|-2-2---222---2-2---2-2---2-2-----|
Eb|-----------------------------3-2-|
    * *   ***   * *   * *       * *
eb|---------------------------------|
Bb|---------------------------------|
Gb|---------------------------------|
Db|-----------2-----3-----2---------|
Ab|-----3-----------------------3-3-|
Eb|-1-1---111---1-1---1-1---1-1-----|
    * *   ***   * *   * *   * * 
eb|---------------------------------|
Bb|---------------------------------|
Gb|---------------------------------|
Db|-----------2-----3-----2---------|
Ab|-----3-----------------------3-3-|
Eb|-1-1---111---1-1---1-1---1-1-----|
    * *   ***   * *   * *   * * 

Intro solo
Guitar 2
eb|-----------------------------------------------------------|
Bb|-12~--------------------------10-12-13-12h13~----12h13-12~-|
Gb|------11~--10~--11~----------------------------------------|
Db|---------------------12--10~-------------------------------|
Ab|-----------------------------------------------------------|
Eb|-----------------------------------------------------------|

Guitar 3
eb|-19~---------------------------17-19-20-19h20~----19h20-19~-|
Bb|------19~--18~--19~-----------------------------------------|
Gb|---------------------19~--17~-------------------------------|
Db|------------------------------------------------------------|
Ab|------------------------------------------------------------|
Eb|------------------------------------------------------------|

End solo


Play Riff 2   "What's the reason..."
Final time ends with this instead:
eb|---------------------------------|
Bb|---------------------------------|
Gb|---------------------------------|
Db|-----------2-----3-----2---------|
Ab|-----3-----------------------3-0-|
Eb|-1-1---111---1-1---1-1---1-1-----|
    * *   ***   * *   * *   * * 


Riff 3
eb|----------------------|
Bb|----------------------|
Gb|----------------------|
Db|-4---------4----7--5--|
Ab|-2----3----2----5--3--|
Eb|------1---------------|
   "I have forced you here..."


Play Riff 2   "Who is this..."
Play Riff 3   "I have forced you here..."

Lead into next section:
eb|-----|
Bb|-----|
Gb|-----|
Db|--4--|
Ab|--2--|
Eb|-----|


Play Riff 1   "I'm out of control..."


Riff 4
Guitar 1 (Distortion)
eb|----------------------------------------|
Bb|----------------------------------------|
Gb|----------------------------------------|
Db|-4--4-4-4-4--4-4-4-4--4---4-4-4-4-4-4-4-|
Ab|-2--2-2-2-2--2-2-2-2--2-222-2-2-2-2-2-2-|
Eb|----------------------------------------|
    *  * * * *  * * * *  * *** * * * * * *
eb|----------------------------------------|
Bb|----------------------------------------|
Gb|----------------------------------------|
Db|----------------------------------------|
Ab|-3--3-3-3-3--3-3-3-3--3---3-3-3-3-3-3-3-|
Eb|-1--1-1-1-1--1-1-1-1--1-111-1-1-1-1-1-1-|
    *  * * * *  * * * *  * *** * * * * * *

Final time:
eb|----------------------------------------|
Bb|----------------------------------------|
Gb|----------------------------------------|
Db|----------------------------------------|
Ab|-3--3-3-3-3--3-3-3-3--3---3-3-3-3-3-3---|
Eb|-1--1-1-1-1--1-1-1-1--1-111-1-1-1-1-1-0-|
    *  * * * *  * * * *  * *** * * * * * *

Guitar 2 (12 String Acoustic)
eb|----------------------------|
Bb|----------------------------|
Gb|--------0----------------0--|
Db|-----4----------------4-----|
Ab|--2----------------3--------|
Eb|----------------------------|

eb|------------------------------|
Bb|----------------------------0-|
Gb|--------0----------------0----|
Db|-----4----------------4-------|
Ab|--2----------------3----------|
Eb|------------------------------|



Riff 5
Guitar 1 (Sometimes a pinch harmonic is used on some notes)
eb|------------------------------------|
Bb|------------------------------------|
Gb|-----5-4----4-5\------5-4----4-4/5\-|
Db|---4----------------4---------------|
Ab|-2----------------2-----------------|
Eb|------------------------------------|
   "I can feel you..."
eb|------------------------------|
Bb|------------------------------|
Gb|------------------------------|
Db|-----2-3~--------2-3~---------|
Ab|---3-----------3--------------|
Eb|-1-----------1-----------/15\-|


Guitar 2
eb|----------------------------------|
Bb|----------------------------------|
Gb|----------------------------------|
Db|----------5--4--------------------|
Ab|-2----------------5--4-------2--3-|
Eb|------------------------1---------|


Play Riff 2   Solo Rhythm

Solo
eb|--------------------------------------------|
Bb|-10b12r10---(10)b12---{10}-{10}-{10}-10b12~-|
Gb|--------------------------------------------|
Db|--------------------------------------------|
Ab|--------------------------------------------|
Eb|--------------------------------------------|

eb|-10b12--10b12r10-9-7----7-------|
Bb|---------------------10---------|
Gb|--------------------------/11~~-|
Db|--------------------------------|
Ab|--------------------------------|
Eb|--------------------------------|

eb|----------------------|
Bb|----------------------|
Gb|-11-11-11-10-9-12-11~-|
Db|----------------------|
Ab|----------------------|
Eb|----------------------|
                        x2
eb|----------------------|-----------------------------------|
Bb|----------------------|--------------/11-11--14p12p11-12~-|
Gb|---------9-11-9-------|---------9-11----------------------|
Db|-9-11-12--------12-11-|-9-11-12---------------------------|
Ab|----------------------|-----------------------------------|
Eb|----------------------|-----------------------------------|
    * * * * *  * *  *  * 

(Guitar 2 plays top notes)
eb|-10-10-10-12-12-12-12/14-14-14-14\10~~-|
Bb|-12-12-12-14-14-14-14/15-15-15-15\12~~-|
Gb|---------------------------------------|
Db|---------------------------------------|
Ab|---------------------------------------|
Eb|---------------------------------------|

eb|-10-10-10-12-12-12-12-/15-14-12-12~~-|
Bb|-12-12-12-14-14-14-14-/17-15-14-14~~-|
Gb|-------------------------------------|
Db|-------------------------------------|
Ab|-------------------------------------|
Eb|-------------------------------------|

eb|-21p17------16-21p16------17-22p17------16-21p16-------|
Bb|------19--19--------19--19--------19--19--------19-----|
Gb|--------18------------18------------18-------------18\-|
Db|-------------------------------------------------------|
Ab|-------------------------------------------------------|
Eb|-------------------------------------------------------|

eb|-12tm--15tm--14---------14-17p14----------14-17-17b19~-|
Bb|---------------17-16-17----------17-16-17--------------|
Gb|-------------------------------------------------------|
Db|-------------------------------------------------------|
Ab|-------------------------------------------------------|
Eb|-------------------------------------------------------|

End solo


Play Riff 2   "I won't let you..."
Play Riff 3   "I have forced you here..."


Riff 5a
Guitar 1 (Sometimes a pinch harmonic is used on some notes)
eb|------------------------------------|
Bb|------------------------------------|
Gb|-----5-4----4-5\------5-4----4-4/5\-|
Db|---4----------------4---------------|
Ab|-2----------------2-----------------|
Eb|------------------------------------|
   "I can feel you..."           Final chord
eb|------------------------------|-----|
Bb|------------------------------|-----|
Gb|------------------------------|-----|
Db|-----2-3~--------2-3~---------|--4--|
Ab|---3-----------3--------------|--2--|
Eb|-1-----------1-----------/15\-|-----|


Guitar 2                             Final note
eb|----------------------------------|-----|
Bb|----------------------------------|-----|
Gb|----------------------------------|-----|
Db|----------5--4--------------------|-----|
Ab|-2----------------5--4-------2--3-|--2--|
Eb|------------------------1---------|-----|

Guitar 3                               Final note
eb|------------------------------------|------|
Bb|-12--------------------------12-13--|--12--|
Gb|---------12-11---------10-----------|------|
Db|-----------------12-11--------------|------|
Ab|------------------------------------|------|
Eb|------------------------------------|------|

-------------------------------------------------------------

7. DRAGON'S CHILD

Tuning: Eb


Riff 1 (Clean)
eb|---------------------------------|
Bb|---------------------------------|
Gb|---------------------------------|
Db|-----10-9----9-------10-9----9---|
Ab|---7-----------7---7-----------7-|
Eb|-0---------0-----8---------8-----|

eb|-----------------------------------|
Bb|-----------------------------------|
Gb|-----------------------------------|
Db|-----10-9----9--------7-----10-----|
Ab|---9-----------9\---7-----10-----9-|
Eb|-7---------7------5-----8------7---|

eb|---------------------------------|
Bb|---------------------------------|
Gb|---------------------------------|
Db|-----10-9----9-------10-9----9---|
Ab|---7-----------7---7-----------7-|
Eb|-0---------0-----8---------8-----|

eb|-----------------------------------|
Bb|-----------------------------------|
Gb|-----------------------------------|
Db|-----10-9----9--------5-----7------|
Ab|---9-----------9\---5-----7---10-9-|
Eb|-7---------7------3-----5------8-7-|


Final time
eb|-----------------------------------0--|
Bb|-----------------------------------0--|
Gb|-----------------------------------x--|
Db|-----10-9----9--------5-----7------2--|
Ab|---9-----------9\---5-----7---10-9-2--|
Eb|-7---------7------3-----5------8-7-0--|



Riff 2 (Distortion)
eb|----------------------------------------|
Bb|----------------------------------------|
Gb|----------------------------------------|
Db|-9----10-9-----9-----9----10-9-----9----|
Ab|-7--7--7-7-7-7-7-77--7-----7-7-----7----|
Eb|-0--0--0-0-0-0-0-00--8--8--8-8-8-8-8-00-|
       *      * *   **     *      * *   **
First ending
eb|-------------------------------|
Bb|-------------------------------|
Gb|-------------------------------|
Db|-9----10-9-----9-----7---10--9-|
Ab|-9-----9-9-----9-----7---10--9-|
Eb|-7--7--7-7-7-7-7-00--5----8--7-|
       *      * *   **   
Second ending
eb|--------------------------------------|
Bb|--------------------------------------|
Gb|--------------------------------------|
Db|-9----10-9-----9\----------------10-9-|
Ab|-9-----9-9-----9\----5-555-5-555-10-9-|
Eb|-7--7--7-7-7-7-7\-00-3-333-3-333--8-7-|
       *      * *    ** * 
Добавлено: 17.07.2012
Другие материалы по этой песне:
  • Аккорды и текст

Страница создана 17.07.2012
http://primanota.ru/iced-earth/horror-show-album-chords.htm
Привет, Гость.
Предлагаем пройти революционный курс по гитаре.
Подарок от PrimaNota.Ru, забирай!