PrimaNota.ru - самый крупный в мире бесплатный архив песенных текстов, аккордов, табулатур и нот


Iced Earth - Iced Earth (album) - таба, видео

Регистрация Запомнить меня
Войти через:  Facebook Google Twitter Vk Yandex Mail.ru

Iced Earth - Iced Earth (album) - таба, видео

Печатать
Просмотров: 151
Уроки эстрадного вокала в Санкт-Петербурге
Band - Iced Earth
Album - Iced Earth

Track Listings:
1. Iced Earth
2. Written On The Walls
3. Colors
4. Curse The Sky
5. Life And Death
6. Solitude
7. Funeral
8. When The Night Falls

-----------------------------------------------------

1. ICED EARTH

Tuning: Eb

Riff 1
Guitar 1 
eb|-----------------------------------|
Bb|-----------------------------------|
Gb|----4-5--5--4tr5-4tr5-4tr5-4h5p4p0-|
Db|-----------------------------------|
Ab|-4---------------------------------|
Eb|-2---------------------------------|

eb|-----------------------------------|
Bb|-----------------------------------|
Gb|-----------------------------------|
Db|----5-4--4--4tr5-4tr5-4tr5-4h5p4p0-|
Ab|-4---------------------------------|
Eb|-2---------------------------------|

eb|-----------------------------------|
Bb|-----------------------------------|
Gb|----4-5--5--4tr5-4tr5-4tr5-4h5p4p0-|
Db|-----------------------------------|
Ab|-4---------------------------------|
Eb|-2---------------------------------|

eb|---------------------------------|
Bb|---------------------------------|
Gb|---------------------------------|
Db|----5-4--4--4tr5-4tr5-4tr5-------|
Ab|-4-------------------------------|
Eb|-2--------------------------/17\-|

Guitar 2 
eb|----------------------------------------|
Bb|-----------------7tr8-7tr8-7tr8-7h8p7p0-|
Gb|----4-5--5--(5)/------------------------|
Db|----------------------------------------|
Ab|-4--------------------------------------|
Eb|-2--------------------------------------|

eb|-----------------------------------|
Bb|-----------------------------------|
Gb|------------6tr7-6tr7-6tr7-6h7p6p0-|
Db|----5-4--4-------------------------|
Ab|-4---------------------------------|
Eb|-2---------------------------------|

eb|----------------------------------------|
Bb|-----------------7tr8-7tr8-7tr8-7h8p7p0-|
Gb|----4-5--5--(5)/------------------------|
Db|----------------------------------------|
Ab|-4--------------------------------------|
Eb|-2--------------------------------------|

eb|------------------------------|
Bb|------------------------------|
Gb|------------6tr7-6tr7-6tr7-7\-|
Db|----5-4--4--------------------|
Ab|-4----------------------------|
Eb|-2----------------------------|



Riff 2
eb|----------------------------------------|
Bb|----------------------------------------|
Gb|----------------------------------------|
Db|------4-5----5-5----5----5-5------------|
Ab|-4----2-3-33-3-3-33-3-33-3-3-3333-3p2p0-|
Eb|-2-22-----------------------------------|
      **     **     **   **     ****        
   "What do I see..."
eb|----------------------------------------|
Bb|----------------------------------------|
Gb|----------------------------------------|
Db|----------------------------------------|
Ab|-4----5-4----4-4----4----4-4------------|
Eb|-2-22-3-2-22-2-2-22-2-22-2-2-2222-3p2p0-|
      **     **     **   **         
   "...on the icy plains..."

Final time before bass interlude:
eb|-------------------------------------------|
Bb|-------------------------------------------|
Gb|-------------------------------------------|
Db|-------------------------------------------|
Ab|-4----5-4----4-4----4----4-4-------------4-|
Eb|-2-22-3-2-22-2-2-22-2-22-2-2-2222-3p2p0--2-|
      **     **     **   **         
   "...the king of this waste..."

"Can't you see this barren land..."

Slide into Riff 2  "I stand on the glacier..."

Final time before next section:
eb|-------------------------------------------|
Bb|-------------------------------------------|
Gb|-------------------------------------------|
Db|-------------------------------------------|
Ab|-4----5-4----4-4----4----4-4-------------4-|
Eb|-2-22-3-2-22-2-2-22-2-22-2-2-2222-3p2p0--2-|
      **     **     **   **         
   "...mark them or fall..."



Riff 3 (Clean)
eb|----------------------------|
Bb|------7-------------9-------|
Gb|---6-----6---6---8-----8----|
Db|-4---------4---6---------6\-|
Ab|----------------------------|
Eb|----------------------------|
   "Can you feel..."
eb|---------------------------------|
Bb|------5------------10--------12--|
Gb|---4-----4---4---9----9---11-----|
Db|-2---------2---7--------9--------|
Ab|---------------------------------|
Eb|---------------------------------|
   "...drawing you..."

Final time:
eb|---------------------------------|
Bb|------5------------10--------12\-|
Gb|---4-----4---4---9----9---11-----|
Db|-2---------2---7--------9--------|
Ab|---------------------------------|
Eb|---------------------------------|



Riff 3a (Distortion)
eb|--------------------|
Bb|--------------------|
Gb|-6-6---6----8-8---8-|
Db|-4-4---4----6-6---6-|
Ab|-----0----------0---|
Eb|--------------------|
        *          *
   "We are together..."
eb|-----------------------------------|
Bb|-------------------10--------12----|
Gb|-4-4---4--4------9--------11-------|
Db|-2-2---2--2--777------999-------44-|
Ab|-----0-----------------------------|
Eb|-----------------------------------|
        *
   "Crush the cowards..."


Riff 3b (After the lyrics)
Guitar 1
eb|-------------------------|
Bb|-------------------------|
Gb|-6-6---6--6/-8-8---8--8\-|
Db|-4-4---4--4/-6-6---6--6\-|
Ab|-----0-----------0-------|
Eb|-------------------------|
        *           *
eb|-----------------------------------|
Bb|-------------------10--------12----|
Gb|-4-4---4--4------9--------11-------|
Db|-2-2---2--2--777------999-------44-|
Ab|-----0-----------------------------|
Eb|-----------------------------------|
        *
eb|-------------------------|
Bb|-------------------------|
Gb|-6-6---6--6/-8-8---8--8\-|
Db|-4-4---4--4/-6-6---6--6\-|
Ab|-----0-----------0-------|
Eb|-------------------------|
        *           *
eb|----------------------------------|
Bb|-------------------10--------12\--|
Gb|-4-4---4--4------9--------11------|
Db|-2-2---2--2--777------999---------|
Ab|-----0----------------------------|
Eb|----------------------------------|
        *

Guitar 2
Here's the "Iced Earth" version:
eb|---------------------------------------|
Bb|-------11-14-11------------13-16-13----|
Gb|----------------11------------------13-|
Db|---11------------------13--------------|
Ab|-9------------------11-----------------|
Eb|---------------------------------------|

eb|----------------------------------------------|
Bb|------9-12-9----------------14-------------16-|
Gb|-------------9-----------14-------------16----|
Db|---9------------11-11-11-------13-13-13-------|
Ab|-7--------------------------------------------|
Eb|----------------------------------------------|
                    *  *  *        *  *  *
eb|---------------------------------------|
Bb|-------11-14-11------------13-16-13----|
Gb|----------------11------------------13-|
Db|---11------------------13--------------|
Ab|-9------------------11-----------------|
Eb|---------------------------------------|

eb|-----------------------------------------------|
Bb|------9-12-9----------------14-------------16\-|
Gb|-------------9-----------14-------------16-----|
Db|---9------------11-11-11-------13-13-13--------|
Ab|-7---------------------------------------------|
Eb|-----------------------------------------------|
                    *  *  *        *  *  *

Here's the live version:
eb|--------6-9-6---------8-11-8-|
Bb|------7-------------9--------|
Gb|---6-------------8-----------|
Db|-4-------------6-------------|
Ab|-----------------------------|
Eb|-----------------------------|

eb|--------4-7-4----------------------|
Bb|------5--------------10---------12-|
Gb|---4---------------9---------11----|
Db|-2-------------777-------999-------|
Ab|-----------------------------------|
Eb|-----------------------------------|

 
Riff 4
Guitar 1                                                                   
eb|--------------------------------------|
Bb|--------------------------------------|
Gb|--------------------------------------|
Db|--------------------------------------|
Ab|----4-5-4--4-5-4------2-3-5-3-2-------|
Eb|-2---------------3--3-----------5-3-0-|
                                       Final chord
eb|------------------------------------|---|
Bb|------------------------------------|---|
Gb|------------------------------------|---|
Db|------------------------------------|---|
Ab|----4-5-4--4-5-4-2------------------|-4-|
Eb|-2------------------5-3-2-5-3-2-5-3-|-2-|

Guitar 2
Here is the album version:
eb|-----------------------------------------------|
Bb|-----------------------------------------------|
Gb|----10-11-10--10-11-10------8-9-11-9-8---------|
Db|-8---------------------9--9------------11-9----|
Ab|--------------------------------------------11-|
Eb|-----------------------------------------------|
                                                Final notes
eb|---------------------------------------------|----------|
Bb|---------------------------------------------|----------|
Gb|----10-11-10--10-11-10-8---------------------|----------|
Db|-8------------------------11-9-8-11-9-8-11-9-|-8--(8)\4-|
Ab|---------------------------------------------|----------|
Eb|---------------------------------------------|----------|

Here's the live version:
eb|--------------------------------------|
Bb|--------------------------------------|
Gb|----6-7-6--6-7-6------4-5-7-5-4-------|
Db|-4---------------5--5-----------7-5---|
Ab|------------------------------------7-|
Eb|--------------------------------------|
                                       Final note
eb|------------------------------------|-----|
Bb|------------------------------------|-----|
Gb|----6-7-6--6-7-6-4------------------|-----|
Db|-4------------------7-5-4-7-5-4-7-5-|--4--|
Ab|------------------------------------|-----|
Eb|------------------------------------|-----|



Riff 5
Guitar 1
eb|------------------------------|
Bb|------------------------------|
Gb|-6------------6---------------|
Db|-4--4-444-444---4-4-4-444-444-|
Ab|------------------------------|
Eb|------------------------------|
       * *** ***   * * * *** *** 
eb|-------------------------------|
Bb|-------------------------------|
Gb|-7---------------6---------4-4-|
Db|---4-4-4-444-444---4-4-4---2-2-|
Ab|-------------------------0-----|
Eb|-------------------------------|
      * * * *** ***   * * * *
eb|-------------------------------|
Bb|-------------------------------|
Gb|-6-------------6---------------|
Db|-4-444-444-444---4-4-4-444-444-|
Ab|-------------------------------|
Eb|-------------------------------|
      *** *** ***   * * * *** *** 
eb|-------------------------------|
Bb|-------------------------------|
Gb|-7---------------6---------4-4-|
Db|---4-4-4-444-444---4-4-4---2-2-|
Ab|-------------------------0-----|
Eb|-------------------------------|
      * * * *** ***   * * * *


Guitar 2
eb|------------------------------|
Bb|------------------------------|
Gb|------------------------------|
Db|-------[silent]---------------|
Ab|------------------------------|
Eb|------------------------------|

eb|-------------------------------|
Bb|-------------------------------|
Gb|---------------------------4-4-|
Db|-------[silent]------------2-2-|
Ab|-------------------------0-----|
Eb|-------------------------------|
                            *
eb|------------------------------|
Bb|------------------------------|
Gb|-6----------------------------|
Db|-4------------6---------------|
Ab|--------------4---------------|
Eb|------------------------------|

eb|-------------------------------|
Bb|-------------------------------|
Gb|---------------------------4-4-|
Db|-7---------------6---------2-2-|
Ab|-5---------------4-------0-----|
Eb|-------------------------------|
                            *


Riff 5a
eb|-------------------------------|
Bb|-------------------------------|
Gb|-6-------------6---------------|
Db|-4-444-444-444---4-4-4-444-444-|
Ab|-------------------------------|
Eb|-------------------------------|
      *** *** ***   * * * *** *** 
eb|-------------------------------|
Bb|-------------------------------|
Gb|-7---------------6---------4-4-|
Db|---4-4-4-444-444---4-4-4---2-2-|
Ab|-------------------------0-----|
Eb|-------------------------------|
      * * * *** ***   * * * *


Riff 5a
eb|-------------------------------|
Bb|-------------------------------|
Gb|-9-------------9---------------|
Db|-7-777-777-777---7-7-7-777-777-|
Ab|-------------------------------|
Eb|-------------------------------|
      *** *** ***   * * * *** *** 
eb|--------------------------------|
Bb|--------------------------------|
Gb|-10---------------9---------7-7-|
Db|----7-7-7-777-777---7-7-7---5-5-|
Ab|--------------------------0-----|
Eb|--------------------------------|
       * * * *** ***   * * * *


Riff 6
eb|----------------------------------|
Bb|----------------------------------|
Gb|-5-----------4--4-4-4-------------|
Db|-3-3-333-553-2--2-2-2-3p2p0-------|
Ab|----------------------------3p2p0-|
Eb|----------------------------------|
      * *** ***       
eb|-----------------------------|
Bb|-----------------------------|
Gb|-5-----------4---------------|
Db|-3-3-333-553-2---------------|
Ab|----------------------2------|
Eb|----------------0-0-0-0--0-0-|
      * *** ***    * * *    * *
eb|----------------------------------|
Bb|----------------------------------|
Gb|-5-----------4--4-4-4-------------|
Db|-3-3-333-553-2--2-2-2-3p2p0-------|
Ab|----------------------------3p2p0-|
Eb|----------------------------------|
      * *** ***       
eb|-------------------------------|
Bb|-------------------------------|
Gb|-5-----------4-----------------|
Db|-3-3-333-553-2-----------------|
Ab|-------------------------------|
Eb|----------------0-0-0-0-0-/12\-|
      * *** ***    * * * * *



Riff 7 (Play 2x)
eb|-----------------------------|
Bb|-----------------------------|
Gb|-----------------------------|
Db|-------------5-------------2-|
Ab|-2-----------3-3-3-333-333-0-|
Eb|-0-0-000-000-----------------|
      * *** ***   * * *** ***
eb|------------------------------|
Bb|------------------------------|
Gb|------------------------------|
Db|-------------4----------------|
Ab|-2-----------2--2-5-3-2-------|
Eb|-0-0-000-000------------5-3-2-|
      * *** ***    * * * * * * *
eb|----------------------------|
Bb|----------------------------|
Gb|----------------------------|
Db|----------------------------|
Ab|-2-----------5--5-5-5--5----|
Eb|-0-0-000-000-3--3-3-3--3--0-|
      * *** ***
eb|-------------------------------|
Bb|-------------------------------|
Gb|-------------------------------|
Db|-----------------5-------------|
Ab|-4--4-4-4--5-3-2-3----2--------|
Eb|-2--2-2-2-----------0-0--0-0-0-|
              * * *    *    * * *


Riff 7a (Solo Rhythm)
eb|-----------------------------|
Bb|-----------------------------|
Gb|-----------------------------|
Db|-------------5-------------2-|
Ab|-2-----------3-3-3-333-333-0-|
Eb|-0-0-000-000-----------------|
      * *** ***   * * *** ***
eb|-----------------------------|
Bb|-----------------------------|
Gb|-----------------------------|
Db|-------------4-------------2-|
Ab|-2-----------2-2-2-222-222-0-|
Eb|-0-0-000-000-----------------|
      * *** ***   * * *** ***
eb|----------------------------|
Bb|----------------------------|
Gb|----------------------------|
Db|----------------------------|
Ab|-2-----------5--5-5-5--5----|
Eb|-0-0-000-000-3--3-3-3--3--0-|
      * *** ***
eb|------------------------------|
Bb|------------------------------|
Gb|------------------------------|
Db|----------------5-------------|
Ab|-4--4-4-4-5-3-2-3----2--------|
Eb|-2--2-2-2----------0-0--0-0-0-|
             * * *    *    * * *

Solo
eb|-----------------------0-0---------24-------|
Bb|----------15-13-12-13----0-------24-h-24----|
Gb|-------------------------------24-h----h-24-|
Db|-----------------------------24-h---------h-|
Ab|-10~--9~----------------------h-------------|
Eb|--------------------------------------------|

eb|-15-17-15----19---------20-20-20-19-19-19-17-17-17-|
Bb|----------17------------20-20-20-19-19-19-17-17-17-|
Gb|-----------------16~-------------------------------|
Db|---------------------------------------------------|
Ab|---------------------------------------------------|
Eb|---------------------------------------------------|
                                                               
eb|-15-15-15-17-17-17-19-19-19-15-17~-|
Bb|-15-15-15-17-17-17-19-19-19-15-----|
Gb|-----------------------------------|
Db|-----------------------------------|
Ab|-----------------------------------|
Eb|-----------------------------------|

eb|-12tr15--------------------------------0-0-|
Bb|--------12tr15--15--------15-13-12-13----0-|
Gb|----------------14b16~---------------------|
Db|-------------------------------------------|
Ab|-------------------------------------------|
Eb|-------------------------------------------|

eb|-17p15p12--------17p15p12--------17p15p12---------|
Bb|---------12h15h17--------12h15h17--------12h15h17-|
Gb|--------------------------------------------------|
Db|--------------------------------------------------|
Ab|--------------------------------------------------|
Eb|--------------------------------------------------|

eb|-17p15p12--------------|
Bb|---------12h15/17-17~~-|
Gb|-----------------------|
Db|-----------------------|
Ab|-----------------------|
Eb|-----------------------|

eb|--------------------------|
Bb|--------------------------|
Gb|-11-9-7---------7-9-------|
Db|--------10-9-10-----10-7~-|
Ab|--------------------------|
Eb|--------------------------|

eb|-------------------------------------|
Bb|-------------------------------------|
Gb|-------------------16h18h19-16h18h19-|
Db|-16h18h19-16h18h19-------------------|
Ab|-------------------------------------|
Eb|-------------------------------------|  

eb|-------------------17h19h20-17h19h20-19~~-|
Bb|-17h19h20-17h19h20------------------------|
Gb|------------------------------------------|
Db|------------------------------------------|
Ab|------------------------------------------|
Eb|------------------------------------------|

End solo


Riff 8
Guitar 1
eb|-------------------------------------------------|
Bb|-------------------------------------------------|
Gb|-------------------------------------------------|
Db|-------------------------------------------------|
Ab|-------4-----------2-----------4-----------2-----|
Eb|-2-222---2-2-3-333---3-3-2-222---2-2-3-333---3-3-|
    * ***   * * * ***   * * * ***   * * * ***   * *
eb|-------------------------------------------------|
Bb|-------------------------------------------------|
Gb|-------------------------------------------------|
Db|-------------------------------------------------|
Ab|-------5-----------3-----------5-----------3-----|
Eb|-3-333---3-3-4-444---4-4-3-333---3-3-4-444---4-4-|
    * ***   * * * ***   * * * ***   * * * ***   * *
eb|-------------------------------------------------|
Bb|-------------------------------------------------|
Gb|-------------------------------------------------|
Db|-------------------------------------------------|
Ab|-------4-----------2-----------4-----------2-----|
Eb|-2-222---2-2-3-333---3-3-2-222---2-2-3-333---3-3-|
    * ***   * * * ***   * * * ***   * * * ***   * *
eb|-----------------------------------------------|
Bb|-----------------------------------------------|
Gb|-----------------------------------------------|
Db|-----------------------------------------------|
Ab|-------5-----------3-----------5-----------3/--|
Eb|-3-333---3-3-4-444---4-4-3-333---3-3-4-444-----|
    * ***   * * * ***   * * * ***   * * * ***

Guitar 2 (Comes in the second time)
eb|--------------------------------------------------|
Bb|--------------------------------------------------|
Gb|-------6-----------4-----------6-----------4------|
Db|-4-444---4-4-5-555---5-5-4-444---4-4-5-555---5-5--|
Ab|--------------------------------------------------|
Eb|--------------------------------------------------|
    * ***   * * * ***   * * * ***   * * * ***   * *
eb|--------------------------------------------------|
Bb|--------------------------------------------------|
Gb|-------7-----------5-----------7-----------5------|
Db|-5-555---5-5-6-666---6-6-5-555---5-5-6-666---6-6--|
Ab|--------------------------------------------------|
Eb|--------------------------------------------------|
    * ***   * * * ***   * * * ***   * * * ***   * *


Riff 9
Guitar 1
eb|---------------------------------|
Bb|---------------------------------|
Gb|---------------------------------|
Db|-9-----9-----9--10----10----1010-|
Ab|-7-777-7-777-7-7-7-777-7-777-7-7-|
Eb|---------------------------------|
      ***   ***   *   ***   ***
eb|---------------------------------|
Bb|---------------------------------|
Gb|---------------------------------|
Db|-9-----9-----9-9-8-----8-----8-8-|
Ab|-6-666-6-666-6-6-6-666-6-666-6-6-|
Eb|---------------------------------|
      ***   ***       ***   ***
eb|---------------------------------|
Bb|---------------------------------|
Gb|---------------------------------|
Db|-9-----9-----9--10----10----1010-|
Ab|-7-777-7-777-7-7-7-777-7-777-7-7-|
Eb|---------------------------------|
      ***   ***   *   ***   ***
eb|--------------------------------|
Bb|--------------------------------|
Gb|--------------------------------|
Db|-9-----9-----9-9-8-----8-----8\-|
Ab|-6-666-6-666-6-6-6-666-6-666-6\-|
Eb|--------------------------------|
      ***   ***       ***   ***

Guitar 2
eb|---------------------|
Bb|---------------------|
Gb|---------------------|
Db|-9-------------------|
Ab|-7----------------2--|
Eb|------------------0--|



Play Riff 2  "So on and on..."


Riff 2a (Solo Rhythm)
eb|---------------------------------------|
Bb|---------------------------------------|
Gb|---------------------------------------|
Db|------4-5----5-5-----------------------|
Ab|-4----2-3-33-3-3-33-4----5-4----4-4----|
Eb|-2-22---------------2-22-3-2-22-2-2-22-|
      **     **     **   **     **     **

Final time:
eb|----------------------------------|
Bb|----------------------------------|
Gb|----------------------------------|
Db|------4-5----5-5------------------|
Ab|-4----2-3-33-3-3-33-4----5-4------|
Eb|-2-22---------------2-22-3-2----0-|
      **     **     **   **


Solo
eb|-2--(2)/11-----|
Bb|-2--(2)/11-----|
Gb|-[long slide]--|
Db|---------------|
Ab|---------------|
Eb|---------------|

eb|-14-13-12-11------------------------------------------|
Bb|------------15-14-13-12-------------------------------|
Gb|-----------------------15-14-13-12--------------------|
Db|----------------------------------16-15-14-13-----16~-|
Ab|---------------------------------------------17-15----|
Eb|------------------------------------------------------|

eb|--------------------------------------------------|
Bb|-20t17-19t16-19t16-18t15-18t15-17t14-17t14/-20t17-|
Gb|--------------------------------------------------|
Db|--------------------------------------------------|
Ab|--------------------------------------------------|
Eb|--------------------------------------------------|

eb|--------------------------------------------------|
Bb|-20t17-19t16-19t16-18t15-18t15-17t14-17t14/-20t17-|
Gb|--------------------------------------------------|
Db|--------------------------------------------------|
Ab|--------------------------------------------------|
Eb|--------------------------------------------------|

eb|---------------------------------------------------------|
Bb|-20t17-19t16-19t16-18t15-18t15-17t14-17t14/-19t17-17b19~-|
Gb|---------------------------------------------------------|
Db|---------------------------------------------------------|
Ab|---------------------------------------------------------|
Eb|---------------------------------------------------------|

eb|---------------------------------|
Bb|---------------------------------|
Gb|---------------------------11----|
Db|-------------------9-11-12----12-|
Ab|------------9-10-9---------------|
Eb|-10-9-10-12----------------------|
     * *  *  * *  * * *  *  * 
eb|------------9-------|
Bb|---------10---10-9~-|
Gb|-9-11-12---------a--|
Db|--------------------|
Ab|--------------------|
Eb|--------------------|

eb|-12-15-17p15p14---------0-19p17p15-15----------0-|
Bb|---------------17p15p14---------------19p17p15---|
Gb|-------------------------------------------------|
Db|-------------------------------------------------|
Ab|-------------------------------------------------|
Eb|-------------------------------------------------|

eb|-17p15p14---------0-19-19p17p15-17-21~-|
Bb|---------17p15p14----------------------|
Gb|---------------------------------------|
Db|---------------------------------------|
Ab|---------------------------------------|
Eb|---------------------------------------|

End Solo


Ending
eb|-------------------------------------|
Bb|-------------------------------------|
Gb|-------------------------------------|
Db|-------------------------------------|
Ab|------2-3-333-3----------------------|
Eb|-2-55-----------55-2-22-3-2-222-2-55-|
    * ** * * *** * ** * ** * * *** * **  

Last time (Ending on DOP)   
eb|----------------------------|
Bb|----------------------------|
Gb|----------------------------|
Db|----------------------------|
Ab|------2-3-333-3-----------4-|
Eb|-2-55-----------55-2-22-3-2-|
    * ** * * *** * ** * ** * 

-------------------------------------------------------

2. WRITTEN ON THE WALLS

Tuning: Eb

NOTE:  The first lyrics are from Written on the Walls, 
the second from Cast in Stone.  Riff changes have been 
noted as well.

Riff 1
Guitar 1
eb|-----------------------|
Bb|-----------------------|
Gb|-----------------------|
Db|-----------------------|
Ab|--5-----4-----7-----2--|
Eb|--3-----2-----5-----0--|

Guitar 2 (not on DOP version)
eb|----------------------------------------|
Bb|----------------------------------------|
Gb|----------------------------------------|
Db|--0-0-12-0-13-0-10-12--0-0-8-0-10-0-7-8-|
Ab|----------------------------------------|
Eb|----------------------------------------|
     * *  * *  * *  *  *  * * * *  * * * * 


Riff 2
Guitar 1
eb|---------------------------------|
Bb|---------------------------------|
Gb|-7-------8-7-5-7-6-------7-6-4-6-|
Db|-5----55-5-5-5-5-4----44-4-4-4-4-|
Ab|---------------------------------|
Eb|---------------------------------|
         **              **         Ending
eb|---------------------------------|-------------|
Bb|---------------------------------|-------------|
Gb|-9------10-9-7-9-----------------|-------------|
Db|-7----77-7-7-7-7-9------10-9-7-9-|-------------|
Ab|-----------------7----77-7-7-7-7-|--5----------|
Eb|---------------------------------|--3--------0-|
         **              ** 

Guitar 2                               x2
eb|----------15h20p15-------------------|
Bb|-15h20p15----------15h20p15----------|
Gb|----------------------------15h19p15-|
Db|-------------------------------------|
Ab|-------------------------------------|
Eb|-------------------------------------|

eb|----------14h19p14-------------------|
Bb|-14h19p14----------14h19p14----------|
Gb|----------------------------14h18p14-|
Db|-------------------------------------|
Ab|-------------------------------------|
Eb|-------------------------------------|

eb|----------14h19p14--------------------|
Bb|-14h19p14----------14h19p14-----------|
Gb|----------------------------14h18p14\-|
Db|--------------------------------------|
Ab|--------------------------------------|
Eb|--------------------------------------|
                              x2
eb|--------5h10p5--------------|
Bb|-5h10p5--------5h10p5-------|
Gb|----------------------5h9p5-|
Db|----------------------------|
Ab|----------------------------|
Eb|----------------------------|
                                       x2
eb|----------12h17p12-------------------|
Bb|-12h17p12----------12h17p12----------|
Gb|----------------------------12h16p12-|
Db|-------------------------------------|
Ab|-------------------------------------|
Eb|-------------------------------------|

Repeat the above, then:
eb|--15~--|
Bb|-------|
Gb|-------|
Db|-------|
Ab|-------|
Eb|-------|



Riff 3
eb|---------------------------------------|
Bb|---------------------------------------|
Gb|---------------------------------------|
Db|---------------------------------------|
Ab|-5------------------4------------------|
Eb|-3-3-333-333-...-00-2-2-222-222-...-00-|
      * *** ***     **   * *** ***     ** 
   "On the night the darkness fell..."
   "On the fall of our kingdom..."
eb|---------------------------------------------------|
Bb|---------------------------------------------------|
Gb|---------------------------------------------------|
Db|---------------------------------------------------|
Ab|-7------------------2------------------------------|
Eb|-5-5-555-555-...-00-0-0-000-0-0-000-0-0-000-000-00-|
      * *** ***     **   * *** * * *** * * *** *** **


Riff 4
Guitar 1
eb|----------------------------------|
Bb|----------------------------------|
Gb|----------------------------------|
Db|-5-555-555-555-555-555-555-555-44-|
Ab|----------------------------------|
Eb|----------------------------------|
    * *** *** *** *** *** *** *** **
eb|----------------------------------|
Bb|----------------------------------|
Gb|----------------------------------|
Db|-4-444-444-444-444-444-444-444-77-|
Ab|----------------------------------|
Eb|----------------------------------|
    * *** *** *** *** *** *** *** **
eb|----------------------------------|
Bb|----------------------------------|
Gb|----------------------------------|
Db|-7-777-777-777-777-777-777-777----|
Ab|-------------------------------77-|
Eb|----------------------------------|
    * *** *** *** *** *** *** *** **
eb|----------------------------------|
Bb|----------------------------------|
Gb|----------------------------------|
Db|----------------------------------|
Ab|-7-777-777-777-777-777-777-777-77-|
Eb|----------------------------------|
    * *** *** *** *** *** *** *** **


Guitar 2
eb|---------------------------------|
Bb|---------------------------------|
Gb|-----7---8---7---5---7---8---7---|
Db|-5-5---5---5---5---5---5---5---4-|
Ab|---------------------------------|
Eb|---------------------------------|
    * *   *   *   *   *   *   *   *
eb|---------------------------------|
Bb|---------------------------------|
Gb|-----6---7---6---4---6---7---6---|
Db|-4-4---4---4---4---4---4---4---7-|
Ab|---------------------------------|
Eb|---------------------------------|
    * *   *   *   *   *   *   *   *
eb|-----------------------------------|
Bb|-----------------------------------|
Gb|-----9---10---9---7---9---10---9---|
Db|-7-7---7----7---7---7---7----7-----|
Ab|---------------------------------7-|
Eb|-----------------------------------|
    * *   *    *   *   *   *    *   * 
eb|-----------------------------------|
Bb|-----------------------------------|
Gb|-----------------------------------|
Db|-----9---10---9---7---9---10---9---|
Ab|-7-7---7----7---7---7---7----7---7-|
Eb|-----------------------------------|
    * *   *    *   *   *   *    *   *

Guitar 3 (let chords ring)
eb|-----|
Bb|-----|
Gb|--7--|
Db|--5--|
Ab|-----|
Eb|-----|

eb|-----|
Bb|-----|
Gb|--6--|
Db|--4--|
Ab|-----|
Eb|-----|

eb|-----|
Bb|-----|
Gb|--9--|
Db|--7--|
Ab|-----|
Eb|-----|

eb|-----|
Bb|-----|
Gb|-----|
Db|--9--|
Ab|--7--|
Eb|-----|



Play Riff 3   "We run to find a place..."
              "Entombed, now and forever..."
Play Riff 4   

Lead into next section:
eb|-----|
Bb|-----|
Gb|-----|
Db|-----|
Ab|--2--|
Eb|--0--|


Riff 5 (Guitar 2 plays notes in () )  Fill used later
eb|-----------------------------------|--10-8-7-----------|
Bb|-----------------------------------|--------10-8-7-----|
Gb|-(5)-------(9)-------(4)-------(7)-|---------------9-7-|
Db|-----------------------------------|-------------------|
Ab|--7---------2---------5---------0--|-------------------|
Eb|-----------------------------------|-------------------|
    "As I lay here..."
    "Long ago..."


Riff 6 (Guitar 2 plays notes in () )
eb|------------------------------------|
Bb|------------------------------------|
Gb|-(5)--------------(9)---------------|
Db|------------------------------------|
Ab|--7-777-7777777-77-2-222-2222222-22-|
Eb|------------------------------------|
     * *** ******* ** * *** ******* ** 
eb|------------------------------------|
Bb|------------------------------------|
Gb|-(4)--------------(7)---------------|
Db|------------------------------------|
Ab|--5-555-5555555-55-0-000-0000000-00-|
Eb|------------------------------------|
     * *** ******* ** * *** ******* **

Final time:
eb|-------------------------10-8-7------------|
Bb|--------------------------------10-8-7-----|
Gb|-(4)--------------(7)------------------9-7-|
Db|-------------------------------------------|
Ab|--5-555-5555555-55-0-000-0000000-0-0-------|
Eb|-------------------------------------------|
     * *** ******* ** * *** ******* * *


Riff 7 (Acoustic)
eb|-0--0-0--0-0-----------0--------|
Bb|-1--1-0--1-1--------------0-----|
Gb|-2--2-2--2-2--2-2----0------0---|
Db|-2--2-2--2-2--2-2----2--------0-|
Ab|-0--0-0--0-0--0-0-2--2----------|
Eb|------------------0--0----------|
    "Armageddon town life..."
    "The darkest corner..."

Final time:
eb|-0--0-0--0-0-----------|
Bb|-1--1-0--1-1-----------|
Gb|-2--2-2--2-2--2-2------|
Db|-2--2-2--2-2--2-2------|
Ab|-0--0-0--0-0--0-0-2----|
Eb|------------------0----|


Riff 8 (Distortion)
NOTE: For "Cast In Stone", the following riff
doesn't contain the 16th notes.

Guitar 1                                    x2
eb|------------------------------------------|-----|
Bb|------------------------------------------|-----|
Gb|------------------------------------------|-----|
Db|------------------------------------------|--2--|
Ab|-000-0-0--0--000-0------------------------|--0--|
Eb|----------------------000-0-0--0--000-0-0-|-----|
    *** * *  *  *** *    *** * *  *  *** * * 

Guitar 2 (not on DOP version)
eb|------------------------------------------------------|
Bb|------------------------------------------------------|
Gb|---4-4/5--4------4-5--4-------------------------------|
Db|-2----------2--2--------2----4-4/5--4------4-5--4-----|
Ab|---------------------------2----------2--2--------2p0-|
Eb|------------------------------------------------------|


Riff 9 (Solo Rhythm)
eb|---------------------------------|
Bb|---------------------------------|
Gb|---------------------------------|
Db|-2-----------2-------3p2p0-------|
Ab|-0-0-000-000-0-0-0-0-------3p2p0-|
Eb|---------------------------------|
      * *** ***   * * *
eb|-------------------------------|
Bb|-------------------------------|
Gb|-------------------------------|
Db|-------------------------------|
Ab|-2-----------2-----------3p2p0-|
Eb|-0-0-000-000-0-0-0-0-2h3-------|
      * *** ***   * * *  


Solo over Riff 9
eb|----------17-15-13----------------------------17-15-13-12-|
Bb|----13-12----------17-15-13----------17-13-12-------------|
Gb|-12-------------------------16-14-12----------------------|
Db|----------------------------------------------------------|
Ab|----------------------------------------------------------|
Eb|----------------------------------------------------------|

eb|-19t12h13p12-19t12h13-19t12h13-19t12\-|
Bb|--------------------------------------|
Gb|--------------------------------------|
Db|--------------------------------------|
Ab|--------------------------------------|
Eb|--------------------------------------|

eb|--------------------------------------------------|
Bb|----15-17-15-13-12-----------------------17-15-13-|
Gb|-------------------14-12---------16-12------------|
Db|-12----------------------15-14-12-----16----------|
Ab|--------------------------------------------------|
Eb|--------------------------------------------------|

eb|--------------------------------------|
Bb|-19t12h13p12-19t12h13-19t12h13-19t12\-|
Gb|--------------------------------------|
Db|--------------------------------------|
Ab|--------------------------------------|
Eb|--------------------------------------|

eb|-8p7h8-10p8p7-10p8p7\5-8p7p5-8p7p5-------------------|
Bb|-----------------------------------8p7p5-8p7p5-------|
Gb|-----------------------------------------------7p5p4-|
Db|-----------------------------------------------------|
Ab|-----------------------------------------------------|
Eb|-----------------------------------------------------|

eb|------------------8p7----8p7----------|
Bb|-------------8-10-----10-----10-8b10~-|
Gb|-5-4-----7-9--------------------------|
Db|-----5/9------------------------------|
Ab|--------------------------------------|
Eb|--------------------------------------|

eb|-----------------------------------|
Bb|-------------------------------8-9-|
Gb|------------------------7-9-10-----|
Db|---------------5-7/9-10------------|
Ab|---------5-7-8---------------------|
Eb|-3/5-7-8---------------------------|

eb|-------------12-13-15-17-17p15p13-17p15p13-----|
Bb|-10/12-13-15-------------------------------17~-|
Gb|-----------------------------------------------|
Db|-----------------------------------------------|
Ab|-----------------------------------------------|
Eb|-----------------------------------------------|

End Solo


Riff 10 (Harmony Solo Rhythm)
eb|-----------------------------------------------------------|
Bb|-----------------------------------------------------------|
Gb|-----------------------------------------------------------|
Db|-7-----------7----------------3-----------3----------------|
Ab|-5-5-555-555-5-5-5-555-555-00-1-1-111-1-1-1-1-1-111-111-00-|
Eb|-----------------------------------------------------------|
      * *** ***   * * *** *** **   * *** * *   * * *** *** **
eb|-------------------------------------------------------|
Bb|-------------------------------------------------------|
Gb|-------------------------------------------------------|
Db|-5-----------5----------------2-----------3--5-3-5-7-5-|
Ab|-3-3-333-333-3-3-3-333-333-00-0-0-000-000-1--3-1-3-5-3-|
Eb|-------------------------------------------------------|
      * *** ***   * * *** *** **   * *** ***    * * * 


Harmony Solo

Guitar 1 
eb|-17-15-17-13-17-15-17---17-15-17-13-17-15-17---|
Bb|---------------------13------------------------|
Gb|--------------------------------------------14-|
Db|-----------------------------------------------|
Ab|-----------------------------------------------|
Eb|-----------------------------------------------|

eb|-17-15-17-13-17-12-17--17-20b22r20-17--------|
Bb|---------------------15---------------20-18~-|
Gb|---------------------------------------------|
Db|---------------------------------------------|
Ab|---------------------------------------------|
Eb|---------------------------------------------|

eb|-------------------------12-13-15/17-15~-|
Bb|----12-13-15----12-13-15-----------------|
Gb|-14----------14--------------------------|
Db|-----------------------------------------|
Ab|-----------------------------------------|
Eb|-----------------------------------------|

eb|------------------------------|
Bb|-17-15-13-15~----15-13-12-13~-|
Gb|------------------------------|
Db|------------------------------|
Ab|------------------------------|
Eb|------------------------------|

eb|-17-15-17-13-17-15-17---17-15-17-13-17-15-17---|
Bb|---------------------13------------------------|
Gb|--------------------------------------------14-|
Db|-----------------------------------------------|
Ab|-----------------------------------------------|
Eb|-----------------------------------------------|

eb|-17-15-17-13-17-12-17--17-20b22r20-17--------|
Bb|---------------------15---------------20-18~-|
Gb|---------------------------------------------|
Db|---------------------------------------------|
Ab|---------------------------------------------|
Eb|---------------------------------------------|

eb|-------------------------------------20~-|
Bb|-15-18-13-17-12-15-10-13-15-18-17-20-----|
Gb|-----------------------------------------|
Db|-----------------------------------------|
Ab|-----------------------------------------|
Eb|-----------------------------------------|

eb|-------------------------13-15-17-17b19~-|
Bb|-------------------15-17-----------------|
Gb|----------14-16-17-----------------------|
Db|-14-16-17--------------------------------|
Ab|-----------------------------------------|
Eb|-----------------------------------------|


Guitar 2
eb|-13-12-13-10-13-12-13---13-12-13-10-13-12-13---|
Bb|---------------------10------------------------|
Gb|--------------------------------------------10-|
Db|-----------------------------------------------|
Ab|-----------------------------------------------|
Eb|-----------------------------------------------|

eb|-13-------------------------12b14r12-----------|
Bb|----12-13-10-13----13----13----------13-12-10~-|
Gb|----------------12----10-----------------------|
Db|-----------------------------------------------|
Ab|-----------------------------------------------|
Eb|-----------------------------------------------|

eb|---------------------------------------|
Bb|---------------------12-13-15-15/16-15-|
Gb|---------------12-14-------------------|
Db|----9-10-12/15-------------------------|
Ab|-12------------------------------------|
Eb|---------------------------------------|

eb|------------------------------|
Bb|-13-12----13~----12-----------|
Gb|-------14-----------14-12-----|
Db|--------------------------15~-|
Ab|------------------------------|
Eb|------------------------------|

eb|-13-12-13-10-13-12-13---13-12-13-10-13-12-13---|
Bb|---------------------10------------------------|
Gb|--------------------------------------------10-|
Db|-----------------------------------------------|
Ab|-----------------------------------------------|
Eb|-----------------------------------------------|

eb|-13-------------------------12b14r12-----------|
Bb|----12-13-10-13----13----13----------13-12-10~-|
Gb|----------------12----10-----------------------|
Db|-----------------------------------------------|
Ab|-----------------------------------------------|
Eb|-----------------------------------------------|

eb|------------------------------------|
Bb|---------------------------------13-|
Gb|-10-14-9-12-7-10-5-9-10-14-12-16----|
Db|------------------------------------|
Ab|------------------------------------|
Eb|------------------------------------|

eb|-----------------------------------------|
Bb|-------------------------12-13-15-15b17~-|
Gb|-------------------12-14-----------------|
Db|----------12-14-15-----------------------|
Ab|-12-14-15--------------------------------|
Eb|-----------------------------------------|

End solo


Play Riff 4


Lead into next section:
eb|---------|
Bb|---------|
Gb|---------|
Db|-10-9-7--|
Ab|---------|
Eb|---------|


Riff 11
Guitar 1
eb|----------------------------------------------------|
Bb|----------------------------------------------------|
Gb|----------------------------------------------------|
Db|-------------------------------------12-12-12-9-9-9-|
Ab|-9-999-9-999-9-999-9-999-9-999-9-999-10-10-10-7-7-7-|
Eb|----------------------------------------------------|
    * *** * *** * *** * *** * *** * ***
   "The frightened children..."
   "The time will come..."
eb|--------------------------------------------------|
Bb|--------------------------------------------------|
Gb|--------------------------------------------------|
Db|-------------------------------------101010-7-7-7-|
Ab|-7-777-7-777-7-777-7-777-7-777-7-777--8-8-8-5-5-5-|
Eb|--------------------------------------------------|
    * *** * *** * *** * *** * *** * ***
   "And no one will explain..."
   "...from the war and deceit..."

Guitar 2
eb|------------------------------------------------------------|
Bb|------------------------------------------------------------|
Gb|------------------------------------------------------------|
Db|---------------9-7-77-9-7-77--------------------------------|
Ab|-9-999-10-1010---------------10-9-999-9-999-10-101010-7-777-|
Eb|------------------------------------------------------------|
    * *** *   * *                    *** * ***  
eb|-----------------------------------------------------|
Bb|-----------------------------------------------------|
Gb|-----------------------------------------------------|
Db|------------7-5-55-7-5-55----------------------------|
Ab|-7-777-8-88----------------8-7-777-7-777-8-888-5-555-|
Eb|-----------------------------------------------------|
    * *** * **                    *** * ***  


Riff 12
Guitar 1
eb|----2-------------0---------|
Bb|----2-------------0---------|
Gb|----------------------------|
Db|---------2-------------2----|
Ab|-4-------0--4--2-------0--2-|
Eb|-2----------2--0----------0-|

Guitar 2                                 x2
eb|---------------------------------------|
Bb|---------------------------------------|
Gb|---------------------------------------|
Db|-9-111111-12-111111-9-111111-12-111111-|
Ab|---------------------------------------|
Eb|---------------------------------------|
    *  * * *  *  * * * *  * * *  *  * * *
eb|---------------------------|
Bb|---------------------------|
Gb|---------------------------|
Db|-7-999-10-999-7-999-10-999-|
Ab|---------------------------|
Eb|---------------------------|
    * ***  * *** * ***  * ***

Guitar 3
eb|----------------------------------|
Bb|----------------------------------|
Gb|----------------------------------|
Db|---------------9-7-77-9-7-77------|
Ab|-9-999-10-1010---------------10-9-|
Eb|----------------------------------|
    * ***  *  * *                      
eb|-------------------------------|
Bb|-------------------------------|
Gb|-------------------------------|
Db|------------7-5-55-7-5-55------|
Ab|-7-777-8-88----------------8-7-|
Eb|-------------------------------|
    * *** * **                      


Ending:
Guitar 1

Play this the first time:
eb|-------------------------------------|
Bb|-------------------------------------|
Gb|-------------------------------------|
Db|-------------------------------------|
Ab|-4--------------------------7/9-9/11-|
Eb|-2--------9\5-5/7--7-----------------|

Play this the rest of the times:        Final note
eb|-------------------------------------|------|
Bb|-------------------------------------|------|
Gb|-------------------------------------|------|
Db|-------------------------------------|------|
Ab|-12-------------------------7/9-9/11-|--12--|
Eb|----------9\5-5/7--7-----------------|------|

Guitar 2                                Final note
eb|-------------------------------------|-----|
Bb|-------------------------------------|-----|
Gb|-------------------------------------|-----|
Db|-------------------------------------|-----|
Ab|-9--------12\9-9\7-7--------12\7-7/9-|--9--|
Eb|-------------------------------------|-----|

-------------------------------------------------------------------

3. COLORS
Tuning: Eb

Riff 1
Guitar 1
eb|---------------------------------|
Bb|---------------------------------|
Gb|---------------------------------|
Db|---------------------------------|
Ab|-2-----2-----2-----2-----2-------|
Eb|-0-0-0-0-0-0-0-0-0-0-0-0-0-0-0-2-|
      * *   * *   * *   * *   * * *
eb|---------------------------------|
Bb|---------------------------------|
Gb|---------------------------------|
Db|---------------------------------|
Ab|-5-----5-----5-----5-----5-------|
Eb|-3-3-3-3-3-3-3-3-3-3-3-3-3-3-5-3-|
      * *   * *   * *   * *   * * *
eb|---------------------------------|
Bb|---------------------------------|
Gb|---------------------------------|
Db|---------------------------------|
Ab|-4-----4-----4-----4-----4-------|
Eb|-2-2-2-2-2-2-2-2-2-2-2-2-2-2-3-2-|
      * *   * *   * *   * *   * * *
eb|---------------------------------|
Bb|---------------------------------|
Gb|---------------------------------|
Db|---------------------------------|
Ab|-2-----2-----2-----2-----2-------|
Eb|-0-0-0-0-0-0-0-0-0-0-0-0-0-0-0-0-|
      * *   * *   * *   * *   * * *

Guitar 2
eb|-------------------------|
Bb|-------------------------|
Gb|-------------------------|
Db|-9~----9----9-12-11-9----|
Ab|---------12-----------12-|
Eb|-------------------------|
          *  *
eb|--------------------------|
Bb|--------------------------|
Gb|--------------------------|
Db|--------9----9-12-11-9----|
Ab|-10~------12-----------12-|
Eb|--------------------------|
           *  *
eb|--------------------------------------|
Bb|--------------------------------------|
Gb|--------------------------------------|
Db|-------9----9-12-11-9-----------------|
Ab|-9~------12-----------12-7~--------10-|
Eb|--------------------------------------|
          *  *
eb|-------------------------|
Bb|-------------------------|
Gb|-------------------------|
Db|-9~----9----9-12-11-9----|
Ab|---------12-----------12-|
Eb|-------------------------|
          *  *
eb|--------------------------|
Bb|--------------------------|
Gb|--------------------------|
Db|--------9----9-12-11-9----|
Ab|-10~------12-----------12-|
Eb|--------------------------|
           *  *
eb|----------------------------|
Bb|----------------------------|
Gb|----------------------------|
Db|-------9----9-12-11-9-------|
Ab|-9~------12-----------12-7~-|
Eb|----------------------------|
          *  *

Guitar 3
eb|----------------------------|
Bb|----------------------------|
Gb|-----------------11-9-------|
Db|-12~----12-11-12------12-11-|
Ab|----------------------------|
Eb|----------------------------|
            *  *
eb|---------------------------|
Bb|---------------------------|
Gb|----------------11-9-------|
Db|-9~----12-11-12------12-11-|
Ab|---------------------------|
Eb|---------------------------|
            *  *
eb|-----------------------------------------|
Bb|-----------------------------------------|
Gb|-----------------11-9--------------------|
Db|--------12-11-12------12-11------------9-|
Ab|-12~------------------------10~----------|
Eb|-----------------------------------------|
            *  *
eb|----------------------------|
Bb|----------------------------|
Gb|-----------------11-9-------|
Db|-12~----12-11-12------12-11-|
Ab|----------------------------|
Eb|----------------------------|
            *  *
eb|---------------------------|
Bb|---------------------------|
Gb|----------------11-9-------|
Db|-9~----12-11-12------12-11-|
Ab|---------------------------|
Eb|---------------------------|
            *  *
eb|--------------------------------|
Bb|--------------------------------|
Gb|-----------------11-9-----------|
Db|--------12-11-12------12-11-----|
Ab|-12~------------------------10~-|
Eb|--------------------------------|
            *  *


Guitar 4 (This is what is used on the live album)
eb|---------------------------------------------|
Bb|-------------8-7------------------8-7--------|
Gb|---------7-9-----7------------7-9-----7------|
Db|-9~----9-----------9--------9-----------9----|
Ab|---------------------10~------------------9~-|
Eb|---------------------------------------------|

eb|----------------------|
Bb|-------8-7------------|
Gb|---7-9-----7----------|
Db|-9-----------9--------|
Ab|---------------7~~----|
Eb|----------------------|


Guitar fill over Riff 1 right before lyrics
eb|-------------------------------------------|
Bb|-------------------------------------------|
Gb|-------------------------------------------|
Db|-9----9/11-12----12/14\12-11----11/12\11-9-|
Ab|-7----7/-9-10----10/12\10--9-----9/10\-9-7-|
Eb|-------------------------------------------|


Riff 1a (this is used for the first part of the verse only)
eb|---------------------------------|
Bb|---------------------------------|
Gb|---------------------------------|
Db|---------------------------------|
Ab|-2-----2-----2-----2-----2-------|
Eb|-0-0-0-0-0-0-0-0-0-0-0-0-0-0-0-2-|
      * *   * *   * *   * *   * * *
   "We're walking in the subway..."
eb|---------------------------------|
Bb|---------------------------------|
Gb|---------------------------------|
Db|---------------------------------|
Ab|-5-----5-----5-----5-----5-------|
Eb|-3-3-3-3-3-3-3-3-3-3-3-3-3-3-5-3-|
      * *   * *   * *   * *   * * *
eb|---------------------------------|
Bb|---------------------------------|
Gb|---------------------------------|
Db|---------------------------------|
Ab|-4-----4-----4-----4-----4-------|
Eb|-2-2-2-2-2-2-2-2-2-2-2-2-2-2-3-2-|
      * *   * *   * *   * *   * * *
   "New York City gangs..."
eb|---------------------------------|
Bb|---------------------------------|
Gb|---------------------------------|
Db|-----------------------------9---|
Ab|-2-----2-----2-----2-----2---7---|
Eb|-0-0-0-0-0-0-0-0-0-0-0-0-0-0---0-|
      * *   * *   * *   * *   *   *


Play Riff 1   "You feel their anger..."
[end riff with a slide]

Riff 2 
Guitar 1
eb|-----------------------------|
Bb|-----------------------------|
Gb|-----------------------------|
Db|-----------------------------|
Ab|-------------------------4-2-|
Eb|-0-000-2-3-3-333-3-5-3-2-2-0-|
    * ***     * *** * * *   * * 

Guitar 2
eb|---------------------------|
Bb|---------------------------|
Gb|---------------------------|
Db|-------7-9-9-999-9-10-9-7--|
Ab|---------------------------|
Eb|-0-000---------------------|
    * ***     * *** *

Both guitars
eb|---------------------------------|
Bb|---------------------------------|
Gb|---------------------------------|
Db|---------------------------------|
Ab|-4-4-4---5-5-5---4-4-5-4-2-------|
Eb|-2-2-2-0-3-3-3-0-2-2-3-2-0--//\\-|
    * * * * * * * * * * * *


Play Riff 1  "As they walk on closer..."
[end riff with a slide]

Play Riff 2


Riff 3
eb|--------------------------------|
Bb|--------------------------------|
Gb|--------------------------------|
Db|--------2-----------------------|
Ab|-2--------2---------------------|
Eb|-0--0-0-----0-0-2-3-2-0-3-0-2-0-|
       * *                         
   "Don't expect..."
eb|--------------------------------|
Bb|--------------------------------|
Gb|--------------------------------|
Db|--------3-----------------------|
Ab|-3--------3---------------------|
Eb|-1--1-1-----0-0-2-3-2-0-3-2-0-2-|
       * * 


Riff 3a
eb|--------------------------------|
Bb|--------------------------------|
Gb|--------------------------------|
Db|--------2-----------------------|
Ab|-2--------2---------------------|
Eb|-0--0-0-----0-0-2-3-2-0-3-0-2-0-|
       * *     * * * * * * * * * * 
  "You walked my turf..."
eb|--------------------------------|
Bb|--------------------------------|
Gb|--------------------------------|
Db|--------3-----------------------|
Ab|-3--------3---------------------|
Eb|-1--1-1-----0-0-2-3-2-0-3-2-0-2-|
       * *     * * * * * * * * * * 


Lead into next riff:
eb|----------------------------------|
Bb|----------------------------------|
Gb|----------------------------------|
Db|----------------------------------|
Ab|----------------------------------|
Eb|-0-000-000-000-000-000-000-000-00-|
    * *** *** *** *** *** *** *** **

Riff 4
Guitar 1 
eb|------------------------------------|
Bb|------------------------------------|
Gb|------------------------------------|
Db|-6-666-7-7-7-6-6--------------------|
Ab|-----------------7-777-8-8-8-7-6-7\-|
Eb|------------------------------------|

eb|------------------------------|
Bb|------------------------------|
Gb|------------------------------|
Db|------------------------------|
Ab|------------------------------|
Eb|-0-000-000-000-000-000-000-00-|
    * *** *** *** *** *** *** **

Guitar 2 (Comes in second time)
eb|------------------------------------|
Bb|------------------------------------|
Gb|-4-444-6-6-6-4-4--------------------|
Db|-----------------6-666-7-7-7-6-5-6\-|
Ab|------------------------------------|
Eb|------------------------------------|

eb|------------------------------|
Bb|------------------------------|
Gb|------------------------------|
Db|------------------------------|
Ab|------------------------------|
Eb|-0-000-000-000-000-000-000-00-|
    * *** *** *** *** *** *** **
                                       

Riff 5
Guitar 1
eb|-----------------------------|
Bb|-----------------------------|
Gb|-----------------------------|
Db|-5-5--5-4-4--4-5-5--5-4-4--4-|
Ab|-3-3--3-2-2--2-3-3--3-2-2--2-|
Eb|-----------------------------|
    * *  * * *  * * *  * * *  * 
eb|------------------------------------|
Bb|------------------------------------|
Gb|------------------------------------|
Db|-7-7--7-6-6--6-7-7--7-5-5--5-6-6--6-|
Ab|-5-5--5-4-4--4-5-5--5-3-3--3-4-4--4-|
Eb|------------------------------------|
    * *  * * *  * * *  * * *  * * *  *

Guitar 2
eb|--8------7------8------7-----|
Bb|-----------------------------|
Gb|--5---5--4---4--5---5--4---4-|
Db|-----------------------------|
Ab|-----------------------------|
Eb|-----------------------------|

eb|-10------8-----10------8------9-----|
Bb|------------------------------------|
Gb|--7---7--5---5--7---7--5---5--6---6-|
Db|------------------------------------|
Ab|------------------------------------|
Eb|------------------------------------|


Guitar 3 (Flange or some effect)       x2
eb|-------------------------------------|
Bb|-13---13---13---13---12--12--12--12--|
Gb|-12---12---12---12---11--11--11--11--|
Db|---10---10---10---10---9---9---9---9-|
Ab|-------------------------------------|
Eb|-------------------------------------|

eb|-----------------------------------------|
Bb|-15---15---15---15---13---13---13---13---|
Gb|-14---14---14---14---12---12---12---12---|
Db|---12---12---12---12---10---10---10---10-|
Ab|-----------------------------------------|
Eb|-----------------------------------------|

eb|-----------------------------------------|
Bb|-15---15---15---15---13---13---14---14---|
Gb|-14---14---14---14---12---12---13---13---|
Db|---12---12---12---12---10---10---11---11-|
Ab|-----------------------------------------|
Eb|-----------------------------------------|



Riff 5a (after lyrics)
Guitar 1                           x2
eb|---------------------------------|
Bb|---------------------------------|
Gb|---------------------------------|
Db|-5---------------4---------------|
Ab|-3-33333333333-0-2-22222222222-0-|
Eb|---------------------------------|
      *********** *   *********** * 
eb|---------------------------------|
Bb|---------------------------------|
Gb|---------------------------------|
Db|-7---------------5---------------|
Ab|-5-55555555555-0-3-33333333333-0-|
Eb|---------------------------------|
      *********** *   *********** *
eb|-----------------------------------|
Bb|-----------------------------------|
Gb|-----------------------------------|
Db|-7---------------5--------6--------|
Ab|-5-55555555555-0-3-3333-0-4-4444-0-|
Eb|-----------------------------------|
      *********** *   **** *   **** *

Guitar 2
eb|----------------------------------------|
Bb|----------------------------------------|
Gb|-12------11------12------11--(11)b12r11-|
Db|----------------------------------------|
Ab|----------------------------------------|
Eb|----------------------------------------|

eb|----------------------------------|
Bb|----------------------------------|
Gb|-14------12------14------12---13--|
Db|----------------------------------|
Ab|----------------------------------|
Eb|----------------------------------|

eb|----------------------------------------|
Bb|----------------------------------------|
Gb|-12------11------12------11--(11)b12r11-|
Db|----------------------------------------|
Ab|----------------------------------------|
Eb|----------------------------------------|

eb|----------------------------------|
Bb|----------------------------------|
Gb|-14------12------14------12---13\-|
Db|----------------------------------|
Ab|----------------------------------|
Eb|----------------------------------|


Guitar 3
eb|----------------------------------------|
Bb|-13------12------13------12--(12)b13r12-|
Gb|----------------------------------------|
Db|----------------------------------------|
Ab|----------------------------------------|
Eb|----------------------------------------|

eb|----------------------------------|
Bb|-15------13------15------13---14--|
Gb|----------------------------------|
Db|----------------------------------|
Ab|----------------------------------|
Eb|----------------------------------|

eb|----------------------------------------|
Bb|-13------12------13------12--(12)b13r12-|
Gb|----------------------------------------|
Db|----------------------------------------|
Ab|----------------------------------------|
Eb|----------------------------------------|

eb|-----------------------------------|
Bb|-15------13------15------13---14~\-|
Gb|-------------------------------a---|
Db|-----------------------------------|
Ab|-----------------------------------|
Eb|-----------------------------------|

Guitar 4
eb|-12------11------12------11--(11)b12r11-|
Bb|----------------------------------------|
Gb|----------------------------------------|
Db|----------------------------------------|
Ab|----------------------------------------|
Eb|----------------------------------------|

eb|-14------12------14------12---13--|
Bb|----------------------------------|
Gb|----------------------------------|
Db|----------------------------------|
Ab|----------------------------------|
Eb|----------------------------------|

eb|-12------11------12------11--(11)b12r11-|
Bb|----------------------------------------|
Gb|----------------------------------------|
Db|----------------------------------------|
Ab|----------------------------------------|
Eb|----------------------------------------|

eb|-14------12------14------12---13\-|
Bb|----------------------------------|
Gb|----------------------------------|
Db|----------------------------------|
Ab|----------------------------------|
Eb|----------------------------------|



Riff 6 (Solo Rhythm)
eb|-------------------------------|
Bb|-------------------------------|
Gb|-------------------------------|
Db|-------------------------------|
Ab|-4--2-4--4-4-4-2-4-2-5-4-4-4-2-|
Eb|-2--0-2--2-2-2-0-2-0-3-2-2-2-0-|


Riff 7 (Solo Rhythm)
eb|--------------------------------------------|
Bb|--------------------------------------------|
Gb|--------------------------------------------|
Db|--------------------------------------------|
Ab|-2-4-----4------2-4-----5-4------2------5-4-|
Eb|-0-2-2-2-2--2-2-0-2-2-2-3-2--2-2-0--0-0-3-2-|
        * *    * *     * *      * *    * *
eb|--------------------------------------------------|
Bb|--------------------------------------------------|
Gb|--------------------------------------------------|
Db|--------------------------------------------------|
Ab|-2-4-----4------2-4-----5-4------2------5-4-------|
Eb|-0-2-2-2-2--2-2-0-2-2-2-3-2--2-2-0--0-0-3-2--//\\-|
        * *    * *     * *      * *    * *
eb|--------------------------------------------|
Bb|--------------------------------------------|
Gb|--------------------------------------------|
Db|--------------------------------------------|
Ab|-2-4-----4------2-4-----5-4------2------5-4-|
Eb|-0-2-2-2-2--2-2-0-2-2-2-3-2--2-2-0--0-0-3-2-|
        * *    * *     * *      * *    * *
eb|--------------------------------------------|
Bb|--------------------------------------------|
Gb|--------------------------------------------|
Db|--------------------------------------------|
Ab|-2-4-----4------2-4-----5-4------2------5-4-|
Eb|-0-2-2-2-2--2-2-0-2-2-2-3-2--2-2-0--0-0-3-2-|
        * *    * *     * *      * *    * *


Solo
eb|---------------------------------------|
Bb|----
Добавлено: 20.04.2012
Другие материалы по этой песне:
  • Аккорды и текст

Страница создана 20.04.2012
http://primanota.ru/iced-earth/iced-earth-album-chords.htm
Привет, Гость.
Предлагаем пройти революционный курс по гитаре.
Подарок от PrimaNota.Ru, забирай!