PrimaNota.ru - самый крупный в мире бесплатный архив песенных текстов, аккордов, табулатур и нот


Ice Nine Kills - What I Never Learned In Study Hall - аккорды и текст, таба, видео

Регистрация Запомнить меня
Войти через:  Facebook Google Twitter Vk Yandex Mail.ru

Ice Nine Kills - What I Never Learned In Study Hall - аккорды и текст, таба, видео

Печатать
Просмотров: 325
What I Never Learned In Study Hall
Ice Nine Kills
_____________________________________________________________________________
The tuning is Drop c#

Intro

e|-----------------------------------------|
B|---6--8--8/9-8---------------------------|
G|---------------8--5-----8/10--8--5--8----|
D|---------------------6-------------------|
A|-----------------------------------------|
E|-----------------------------------------|


e|-------------------6/8--8--8--8--6-------|
B|----8/9--8-------------------------------|
G|-----------8--5--------------------------|
D|-6---------------6-----------------------| 
A|-----------------------------------------|
E|-----------------------------------------|   


Verse 1:



                            C#m
e|--------------------------------------------------------------|
B|--------------------------------------------------------------|
G|-----------------5---------------------------5----------------|
D|-----6----6----6----6------6-----6---6----6-----6----6--------|
A|--4----4-----4----------4-----4----4---4-----------4----------|
E|--------------------------------------------------------------|


                            E#m
e|--------------------------------------------------------------|
B|--------------------------------------------------------------|
G|---------------------8-----------------------8----------------|
D|-----10----10-----10----10---10----10-----10-------10-----10--|
A|--8-----8------8-----------8-----8------8--------------8------|
E|--------------------------------------------------------------| 
      
                            D#m
e|--------------------------------------------------------------|
B|--------------------------------------------------------------|
G|-----------------8---------------------------8----------------|
D|-----8----8----8----8-----8-----8---8----8-----8----8---------| 
A|--6----6-----6---------6-----6----6---6-----------6-----------|
E|--------------------------------------------------------------|    



                  C#m
From the moment we started
                      E#m                    D#m
Every single thing I promised you I followed through 
                   C#m                           E#m                     D#m
And just like a pawn would, all the moves that I would make would be at your decree 
    C#m                           C#m                     Fm   C#m  
But every second spent with you has meant nothing at all
      D#m                                          Bbm 
And now the gloves are off let's tear apart all our poisoned memories
 Cm  C#m                D#m
I know I'm better off alone



Chorus:


              Fm               D#m
'Cause I'm six feet below this burning wreckage 
        C#m
of the life we used to know 
           G#m                D#m  
Now all the hope we had is dying



Verse 1:
  
                    
                       C#m
From the moment we started, 
                      E#m                    D#m
Every word you said made me feel that this was real
                C#m
But still I was guarded
                         E#m                    D#m
Not the first time I had fallen prey to this cliche'
   C#m                          C#m               Fm  C#m
Every second spent with you has meant nothing at all
  D#m                                      Fm       C#m
I'm left talking to myself where did I go wrong?
                  D#m                                Bbm
And now the gloves are off, let's disregard what I thought you meant to me
  Cm  C#m                
I know I'm better off alone



Chorus:



             Fm                 D#m
'Cause I'm six feet below this burning wreckage 
        C#m
of the life we used to know 
            G#m               D#m  
Now all the hope we had is dying
            Fm         
'Cause I'm six feet below 
              D#m
I hope you hear this message 
          C#m 
That to live is to let go 
           G#m               D#m
But still a part of me is dying



Bridge:
 


C#m                                  D#m
     I'm more alive; I'm over being broken
                   E#m
Time has healed all wounds
                                 D#m
I wish the scratches that you left on me
Were scars I left on you
 C#m                                    D#m
I turned my back on the person you've become
                                  E#m
And realized what it means to be forgotten
     D#m
Be forgotten
    C#m                                  D#m    
I turned my back on the person you've become
                                  Bbm
Now Realize how it feels to be forgotten
   Cm   C#m      D#m
So be forgotten



Chorus:


       Fm                 D#m
I'm six feet below this burning wreckage 
          C#m                   G#m  D#m
Of the life we used to know 

            Fm         
'Cause I'm six feet below 
              D#m
I hope you hear this message 
          C#m 
That to live is to let go 
           G#m               D#m
But still a part of me is dying


e|-----------------------------------------|
B|---6--8--8/9-8---------------------------|
G|---------------8--5-----8/10--8--5--8----|
D|---------------------6-------------------|
A|-----------------------------------------|
E|-----------------------------------------|

e|-----------------------------------------|
B|----8/9--8-------------------------------|
G|-----------8--5--------------------------|
D|-6---------------------------------------| 
A|-----------------------------------------|
E|-----------------------------------------|   
Добавлено: 04.11.2015
Другие материалы по этой песне:

Страница создана 11.08.2013
http://primanota.ru/ice-nine-kills/what-i-never-learned-in-study-hall-chords.htm
Привет, Гость.
Предлагаем пройти революционный курс по гитаре.
Подарок от PrimaNota.Ru, забирай!