PrimaNota.ru - самый крупный в мире бесплатный архив песенных текстов, аккордов, табулатур и нот


Ice Nine Kills - Build Your Own Disaster - таба, видео

Регистрация Запомнить меня
Войти через:  Facebook Google Twitter Vk Yandex Mail.ru

Ice Nine Kills - Build Your Own Disaster - таба, видео

Печатать
Просмотров: 165
-------------------------------------------------------------------------------
                            Build Your Own Disaster - Ice Nine Kills
-------------------------------------------------------------------------------
Tabbed by: plunger333
Email: plunger333@gmail.com

Tuning: standard

I'm not sure what tuning the band plays it in but i know the notes are close to if not 
right.  I find it easiest to finger pick it.  This is my first tab and i'm planning on 
the rest of the song.  Comments/corrections appreciated.

                                  play 6 times       end early sixth time
e|-------6---5---5-------4---3---3---3-------3---3---3---------3-----------|
B|-------------------6-------------------6---------------6-------6-4-------|
G|-------------------------------------------------------------------------|
D|---5-------------6---6---6---6-------------------------------------------|
A|-3---3---3---3-------------------6---6---6---6---5---5---5---------------|
E|-------------------------------------------------------------------------|
Добавлено: 19.05.2012
Другие материалы по этой песне:
  • Аккорды и текст

Страница создана 01.03.2012
http://primanota.ru/ice-nine-kills/build-your-own-disaster-chords.htm
Привет, Гость.
Предлагаем пройти революционный курс по гитаре.
Подарок от PrimaNota.Ru, забирай!