PrimaNota.ru - самый крупный в мире бесплатный архив песенных текстов, аккордов, табулатур и нот


Ice Nine Kills - What Lies Beneath - таба, видео

Регистрация Запомнить меня
Войти через:  Facebook Google Twitter Vk Yandex Mail.ru

Ice Nine Kills - What Lies Beneath - таба, видео

Печатать
Просмотров: 129
Ice Nine Kills - What Lies Beneath | Tuning - Drop C# | Rhythm Guitar 

Highly underrated band, this was a fun song to tab out. THIS IS THE RHYTHM GUITAR TAB, I will post a 
lead guitar tab later. Please leave comments, and or corrections. If you need further instruction, please
let me know and I'll edit the layout. 

Intro - First part of Intro 2x
|---------|---------------|---------|---------------|
|--6------|-8-------------|-10------|--8------8-----|
|--3--x16-|-5--x12---2222-|--7--x16-|--5--x8--7--x8-|
|---------|---------------|---------|---------------|
|---------|---------------|---------|---------------|
|---------|---------------|---------|---------------|

|---------|---------------| |--------------------------------| --
|-6-------|-8-------------| |--------------------------------|  |
|-3--x16--|-5--x12--2222--| |-10-10-10-10--9999--7777--55555-|  |
|---------|---------------| |--------------------------------|  |2x
|---------|---------------| |--------------------------------|  |
|---------|---------------| |--------------------------------| --

Pre Verse - 
|--------------------------|-------------------------|-----------------------------|
|--------------------------|-------------------------|-----------------------------|
|--------------------------|-------------------------|-----------------------------|
|--------------------------|-------------------------|-----------------------------|
|----5----4-7-----1----0-4-|-----8---5-7---10----7-8-|-----12----10-----10-13-8-12-|
|-000--00----000---00------|-000---0----000--0-00----|-888----88----8888-----------|

|--------------------------|--------------------------|-------------------------|
|--------------------------|--------------------------|-------------------------|
|--------------------------|--------------------------|-------------------------|
|--------------------------|--------------------------|-------------------------|
|-----8----7-----------5-8-|----5----4-7-----1----0-4-|-----8---5-7---10----7-8-|
|-555---55--5-5555--5-8----|-000--00----000---00------|-000---0----000--0-00----|

|-----------------------------|------------------------|
|-----------------------------|------------------------|
|-----------------------------|------------------------|
|-----------------------------|------------------------|
|-----12----10-----10-13-8-12-|-----8---7---5555--5555-|
|-888----88----8888-----------|-555---55--5-5555--5555-|

Verse - 
|-----------------|---------|-----------------|---------------------|
|-----------------|---------|-----------------|---------------------|
|-----------------|---------|-----------------|---------------------|
|-----------------|---------|-----------------|---------------------|
|-----------------|---------|-----------------|-----------------5-8-|
|-0000-00---00-00-|-0000-00-|-8888-88-----888-|-5555-55-----5-8-----|

|----------------|---------|-----------------|------------|
|----------------|---------|-----------------|------------|
|----------------|---------|-----------------|------------|
|----------------|---------|-----------------|------------|
|----------------|---------|-----------------|------------|
|-0000-----00-00-|-0000-00-|-8888-88-----888-|-5555--55-5-|

Chorus - 
|---------|---------|---------|---------| --    |------------|
|---------|---------|---------|---------|  |    |------------|
|---------|---------|---------|---------|  |    |------------|
|-8-8-8-8-|-7-7-7-7-|-0-0-0-0-|-3-3-3-3-|  | 2x |-8---7---0~-|
|-8-8-8-8-|-7-7-7-7-|-0-0-0-0-|-3-3-3-3-|  |    |-8---7---0~-|
|-8-8-8-8-|-7-7-7-7-|-0-0-0-0-|-3-3-3-3-| --    |-8---7---0~-|
Post Chorus -
|--------------------------|-------------------------|-----------------------------|
|--------------------------|-------------------------|-----------------------------|
|--------------------------|-------------------------|-----------------------------|
|--------------------------|-------------------------|-----------------------------|
|----5----4-7-----1----0-4-|-----8---5-7---10----7-8-|-----12----10-----10-13-8-12-|
|-000--00----000---00------|-000---0----000--0-00----|-888----88----8888-----------|

|--------------------------|
|--------------------------|
|--------------------------|
|--------------------------|
|-----8----7-----------5-8-|
|-555---55--5-5555--5-8----|

Verse 2 -
|-----------------|---------|-----------------|---------------------|
|-----------------|---------|-----------------|---------------------|
|-----------------|---------|-----------------|---------------------|
|-----------------|---------|-----------------|---------------------|
|-----------------|---------|-----------------|-----------------5-8-|
|-0000-00---00-00-|-0000-00-|-8888-88-----888-|-5555-55-----5-8-----|

Bridge - 
|------------------------------------|---------------------------------------| --
|------------------------------------|---------------------------------------|  |
|-----------------------2-3----3-5---|-5-7---7--9---9-10----10-12---12-14-12-|  |
|-0-2-3-0--3-5-0-5--7-0------0-----0-|-----0------0-------0------0-----------|  |2x
|------------------------------------|---------------------------------------|  |
|------------------------------------|---------------------------------------| --

|-----------|-----------|------------------|--------|
|-----------|-----------|---10-10--10------|-10-----|
|-----------|-----------|----7--7---7--x12-|--7--x8-|
|-----------|-----------|------------------|--------|
|-8888-88-8-|-5555-55-5-|-0----------------|--------|
|-8888-88-8-|-5555-55-5-|-0----------------|--------|

Chorus 2 - 
|---------|---------|---------|---------|---------|---------|
|---------|---------|---------|---------|---------|---------|
|---------|---------|---------|---------|---------|---------|
|-8-8-8-8-|-7-7-7-7-|-0-0-0-0-|-3-3-3-3-|-8-8-8-8-|-7-7-7-7-|
|-8-8-8-8-|-7-7-7-7-|-0-0-0-0-|-3-3-3-3-|-8-8-8-8-|-7-7-7-7-|
|-8-8-8-8-|-7-7-7-7-|-0-0-0-0-|-3-3-3-3-|-8-8-8-8-|-7-7-7-7-|

Post Chorus - 
|---------|--|---------|-----------|---------|--|---------|
|---------|--|---------|-----------|---------|--|---------|
|---------|--|---------|-----------|---------|--|---------|
|---------|--|---------|-----------|---------|--|---------|
|---------|--|---------|-----------|---------|--|---------|
|-0000-00-|--|-0000-00-|-------000-|-0000-00-|--|-0000-00-|

|---------|----------|---------|----------| --
|---------|----------|---------|----------|  |
|---------|----------|---------|----------|  | 2x 
|---------|----------|---------|----------|  |
|---------|----------|---------|----------|  |
|-0000-00-|----00-12-|-0000-00-|----00-33-| --

Pre Chorus/Bridge 2 - 
|---------|---------------|---------|---------------|---------|---------------|
|--6------|-8-------------|-10------|--8------8-----|-6-------|-8-------------|
|--3--x16-|-5--x12---2222-|--7--x16-|--5--x8--7--x8-|-3--x16--|-5--x12--2222--|
|---------|---------------|---------|---------------|---------|---------------|
|---------|---------------|---------|---------------|---------|---------------|
|---------|---------------|---------|---------------|---------|---------------|

|--------------------------------| --   |---------------------|--------|
|--------------------------------|  |   |---------------------|-10-----|
|-10-10-10-10--9999--7777--55555-|  |   |-7777-7777-7777-7777-|--7--8x-|
|--------------------------------|  |2x |---------------------|--------|
|--------------------------------|  |   |---------------------|--------|
|--------------------------------| --   |---------------------|--------|

Final Chorus -
|---------|---------|---------|---------| --    |------------|
|---------|---------|---------|---------|  |    |------------|
|---------|---------|---------|---------|  |    |------------|
|-8-8-8-8-|-7-7-7-7-|-0-0-0-0-|-3-3-3-3-|  | 4x |-8---7---0~-|
|-8-8-8-8-|-7-7-7-7-|-0-0-0-0-|-3-3-3-3-|  |    |-8---7---0~-|
|-8-8-8-8-|-7-7-7-7-|-0-0-0-0-|-3-3-3-3-| --    |-8---7---0~-|
Добавлено: 15.08.2015
Другие материалы по этой песне:

Страница создана 22.10.2014
http://primanota.ru/ice-nine-kills/what-lies-beneath-chords.htm
Привет, Гость.
Предлагаем пройти революционный курс по гитаре.
Подарок от PrimaNota.Ru, забирай!