PrimaNota.ru - самый крупный в мире бесплатный архив песенных текстов, аккордов, табулатур и нот


I - Days Of North Winds - таба, видео

Регистрация Запомнить меня
Войти через:  Facebook Google Twitter Vk Yandex Mail.ru

I - Days Of North Winds - таба, видео

Печатать
Просмотров: 173
Just the intro. If anyone is interested I can do the whole thing.

     Q    E  E  E  E  E  E   
D||-------------------------|
A||-------------------------|
F||-------------------------|
C||-------------------------|
G||--7----2--2--2--2--2--2--|
D||--7----0--0--0--0--0--0--|


  E  E  E   Q     E   E   E   
-----------------------------|
-----------------------------|
-----------------------------|
-----------------------------|
--9--7--9--10----10--10--10--|
--7--5--7---8-----8---8---8--|


  Q    E  E  E  E  E  E   
-------------------------|
-------------------------|
-------------------------|
-------------------------|
--7----2--2--2--2--2--2--|
--7----0--0--0--0--0--0--|


  E  E   E   Q     E   E   E   
------------------------------|
------------------------------|
------------------------------|
------------------------------|
--9--7--10--10----10--10--10--|
--7--5---7---7-----7---7---7--|


  Q    E  E  E  E  E  E   
-------------------------|
-------------------------|
-------------------------|
-------------------------|
--7----2--2--2--2--2--2--|
--7----0--0--0--0--0--0--|


  E  E  E   Q     E   E   E   
-----------------------------|
-----------------------------|
-----------------------------|
-----------------------------|
--9--7--9--10----10--10--10--|
--7--5--7---8-----8---8---8--|


  Q    E  E  E  E  E  E   
-------------------------|
-------------------------|
-------------------------|
-------------------------|
--7----2--2--2--2--2--9--|
--7----0--0--0--0--0--7--|


   E  E  E  Q    E  E  E    
--------------------------||
--------------------------||
--------------------------||
--------------------------||
--10--9--7--6----6--6--6--||
---8--7--5--4----4--4--4--||
Добавлено: 16.04.2012
Другие материалы по этой песне:

Страница создана 11.03.2012
http://primanota.ru/i/days-of-north-winds-chords.htm
Привет, Гость.
Предлагаем пройти революционный курс по гитаре.
Подарок от PrimaNota.Ru, забирай!