PrimaNota.ru - самый крупный в мире бесплатный архив песенных текстов, аккордов, табулатур и нот


I - Warriors - таба, видео

Регистрация Запомнить меня
Войти через:  Facebook Google Twitter Vk Yandex Mail.ru

I - Warriors - таба, видео

Печатать
Просмотров: 89
Уроки эстрадного вокала в Санкт-Петербурге
                                   Warriors                                     
Tune down 1 step
                    
                                     "I"
Abbath

Intro
     E.    S  S  S  E.  S S S E.  E.  S S S S S S  
D||-----------------------------------------5-----|
A||-------15-15-15-15-------------8-----6---L-6-L-|
F||--7----14-14-14-14---7-7-7-7---7---7-L-7-L-L-7-|
C||--0---/12-12-12-12---0-0-0-0---0---------------|
G||--5------------------5-5-5-5-------------------|
D||-----------------------------------------------|


  E.    S  S  S  E.  S S S E.  E.  S S S S S S  
-----------------------------------5-L---5-L---|
-------15-15-15-15---------8---8-----6-L-L-6-L-|
--7----14-14-14-14---7-7-7-7---7-------7-L-L-7-|
--0---/12-12-12-12---0-0-0-0---0---------------|
--5------------------5-5-5---------------------|
-----------------------------------------------|


  E.    S  S  S  E.  S S S E.  E.  S S S S S S  
-----------------------------------------5-----|
-------15-15-15-15-------------8-----6---L-6-L-|
--7----14-14-14-14---7-7-7-7---7---7-L-7-L-L-7-|
--0---/12-12-12-12---0-0-0-0---0---------------|
--5------------------5-5-5-5-------------------|
-----------------------------------------------|


  E.    S  S  S  E.  S S S E.  E.  S S S S S S  
-----------------------------------5-L---5-L---|
-------15-15-15-15---------8---8-----6-L-L-6-L-|
--7----14-14-14-14---7-7-7-7---7-------7-L-L-7-|
--0---/12-12-12-12---0-0-0-0---0---------------|
--5------------------5-5-5---------------------|
-----------------------------------------------|


  E.  S S S E.  S S S E.  S S S S S S S S S  
--------------------------------------------|
--------------------------------6-6-6-5-5---|
--7---------7---------7---------7-7-7-7-7-5-|
--7---------8---------7---------8-8-8-8-8-7-|
--5---------5---------5---------------------|
------0-0-0-----0-0-0-----0-0-0-------------|


  E.  S S S E.  S S S E.  E.  S S S S S S  
------------------------------------------|
------------------------------6-6-6-5-5---|
--7---------7---------7-------7-7-7-7-7-5-|
--7---------8---------7-------8-8-8-8-8-7-|
--5---------5---------5-------------------|
------0-0-0-----0-0-0-----0---------------|


  E.  S S S E.  S S S E.  S S S S S S S S S  
--------------------------------------------|
--------------------------------6-6-6-5-5---|
--7---------7---------7---------7-7-7-7-7-5-|
--7---------8---------7---------8-8-8-8-8-7-|
--5---------5---------5---------------------|
------0-0-0-----0-0-0-----0-0-0-------------|


  E.  S S S E.  S S S E.  E.  S S S S S S  
------------------------------------------|
------------------------------6-6-6-5-5---|
--7---------7---------7-------7-7-7-7-7-5-|
--7---------8---------7-------8-8-8-8-8-7-|
--5---------5---------5-------------------|
------0-0-0-----0-0-0-----0---------------|


  E.    S  S  S  E.  S S S E.  E.  S S S S S S  
-----------------------------------------5-----|
-------15-15-15-15-------------8-----6---L-6-L-|
--7----14-14-14-14---7-7-7-7---7---7-L-7-L-L-7-|
--0---/12-12-12-12---0-0-0-0---0---------------|
--5------------------5-5-5-5-------------------|
-----------------------------------------------|


  E.    S  S  S  E.  S S S E.  E.  S S S S S S  
-----------------------------------5-L---5-L---|
-------15-15-15-15---------8---8-----6-L-L-6-L-|
--7----14-14-14-14---7-7-7-7---7-------7-L-L-7-|
--0---/12-12-12-12---0-0-0-0---0---------------|
--5------------------5-5-5---------------------|
-----------------------------------------------|


  E.    S  S  S  E.  S S S E.  E.  S S S S S S  
-----------------------------------------5-----|
-------15-15-15-15-------------8-----6---L-6-L-|
--7----14-14-14-14---7-7-7-7---7---7-L-7-L-L-7-|
--0---/12-12-12-12---0-0-0-0---0---------------|
--5------------------5-5-5-5-------------------|
-----------------------------------------------|


  E.    S  S  S  E.  S S S E.  E.  S S S S S S  
-----------------------------------5-L---5-L---|
-------15-15-15-15---------8---8-----6-L-L-6-L-|
--7----14-14-14-14---7-7-7-7---7-------7-L-L-7-|
--0---/12-12-12-12---0-0-0-0---0---------------|
--5------------------5-5-5---------------------|
-----------------------------------------------|


  E.  S S S E.  S S S E.  S S S S S S S S S  
--------------------------------------------|
--------------------------------6-6-6-5-5---|
--7---------7---------7---------7-7-7-7-7-5-|
--7---------8---------7---------8-8-8-8-8-7-|
--5---------5---------5---------------------|
------0-0-0-----0-0-0-----0-0-0-------------|


  E.  S S S E.  S S S E.  E.  S S S S S S  
------------------------------------------|
------------------------------6-6-6-5-5---|
--7---------7---------7-------7-7-7-7-7-5-|
--7---------8---------7-------8-8-8-8-8-7-|
--5---------5---------5-------------------|
------0-0-0-----0-0-0-----0---------------|


  E.  S S S E.  S S S E.  S S S S S S S S S  
--------------------------------------------|
--------------------------------6-6-6-5-5---|
--7---------7---------7---------7-7-7-7-7-5-|
--7---------8---------7---------8-8-8-8-8-7-|
--5---------5---------5---------------------|
------0-0-0-----0-0-0-----0-0-0-------------|


  E.  S S S E.  S S S S  E  E.   S E  E.   
------------------------------------------|
------------------------------------------|
--7---------7-----------------------------|
--7---------8------------5--5------5--5---|
--5---------5---------3--5--5----3-5--5---|
------0-0-0-----0-0-0-1s-3--3s---1-3--3---|

Verse
        PM      PM      PM                     PM      PM      PM               
    E.  E.  E.  E.  E.  E.  S S S S S S    E.  E.  E.  E.  E.  E.  S S S S S S  
|---------------------------------------|--------------------------------------|
|---------------------------6-6-6-5-5---|--------------------------6-6-6-5-5---|
|*--7-------7-------7-------7-7-7-7-7-5-|--7-------7-------7-------7-7-7-7-7-5-|
|*--7-------8-------7-------8-8-8-8-8-7-|--7-------8-------7-------8-8-8-8-8-7-|
|---5-------5-------5-------------------|--5-------5-------5-------------------|
|-------0-------0-------0---------------|------0-------0-------0---------------|


      PM      PM      PM                     PM      PM                         
  E.  E.  E.  E.  E.  E.  S S S S S S    E.  E.  E.  E.  S  E  E.   S E  E.   3x
--------------------------------------|---------------------------------------||
--------------------------6-6-6-5-5---|---------------------------------------||
--7-------7-------7-------7-7-7-7-7-5-|--7-------7---------------------------*||
--7-------8-------7-------8-8-8-8-8-7-|--7-------8----------5--5------5--5---*||
--5-------5-------5-------------------|--5-------5-------3--5--5----3-5--5----||
------0-------0-------0---------------|------0-------0---1s-3--3s---1-3--3----||

Chorus
  E  S S S S E  S S S S E  S S S S E  S S S S  
----------------------------------------------|
----------------------------------------------|
--7--7-7-7-7-5--5-----------------------------|
--7--7-7-7-7-5--5-7-7-7-3--3-3-3-3-3--3-3-3-3-|
--5--5-5-5-5-3--3-7-7-7-3--3-3-3-3-3--3-3-3-3-|
------------------5-5-5-1--1-1-1-1-1--1-1-1-1-|


  E  S S S S E  S S S S E  S S S S E  S S S S  
----------------------------------------------|
----------------------------------------------|
--7--7-7-7-7-5--5-----------------------------|
--7--7-7-7-7-5--5-7-7-7-3--3-3-3-2-2--2-2-2-2-|
--5--5-5-5-5-3--3-7-7-7-3--3-3-3-3-3--3-3-3-3-|
------------------5-5-5-1--1-1-1-3-3--3-3-3-3-|


  E  S S S S E  S S S S E  S S S S E  S S S S  
----------------------------------------------|
----------------------------------------------|
--7--7-7-7-7-5--5-----------------------------|
--7--7-7-7-7-5--5-7-7-7-3--3-3-3-3-3--3-3-3-3-|
--5--5-5-5-5-3--3-7-7-7-3--3-3-3-3-3--3-3-3-3-|
------------------5-5-5-1--1-1-1-1-1--1-1-1-1-|


  E  S S S S E  S S S S E  S S S S E  S S S S  
----------------------------------------------|
----------------------------------------------|
----------------------------------------------|
--2--2-2-2-2-2--2-2-2-2-0--0-0-0-0-0--0-0-0-0-|
--3--3-3-3-3-3--3-3-3-3-2--2-2-2-2-2--2-2-2-2-|
--3--3-3-3-3-3--3-3-3-3-3--3-3-3-3-3--3-3-3-3-|


  E  S S S S E  S S S S E  S S S S E  S S S S  
----------------------------------------------|
----------------------------------------------|
--7--7-7-7-7-5--5-----------------------------|
--7--7-7-7-7-5--5-7-7-7-3--3-3-3-3-3--3-3-3-3-|
--5--5-5-5-5-3--3-7-7-7-3--3-3-3-3-3--3-3-3-3-|
------------------5-5-5-1--1-1-1-1-1--1-1-1-1-|


  E  S S S S E  S S S S E  S S S S E  S S S S  
----------------------------------------------|
----------------------------------------------|
--7--7-7-7-7-5--5-----------------------------|
--7--7-7-7-7-5--5-7-7-7-3--3-3-3-2-2--2-2-2-2-|
--5--5-5-5-5-3--3-7-7-7-3--3-3-3-3-3--3-3-3-3-|
------------------5-5-5-1--1-1-1-3-3--3-3-3-3-|


  E  S S S S E  S S S S E  S S S S E  S S S S  
----------------------------------------------|
----------------------------------------------|
--7--7-7-7-7-5--5-----------------------------|
--7--7-7-7-7-5--5-7-7-7-3--3-3-3-3-3--3-3-3-3-|
--5--5-5-5-5-3--3-7-7-7-3--3-3-3-3-3--3-3-3-3-|
------------------5-5-5-1--1-1-1-1-1--1-1-1-1-|


  E  S S S S E  S S S S E  S S S S E  S S S S    E  S S S S E  S S S S E  S S  
----------------------------------------------|-------------------------------|
----------------------------------------------|-------------------------------|
----------------------------------------------|--7--7-7-7-7-7--7-7-7-7-9--9-9-|
--2--2-2-2-2-2--2-2-2-2-0--0-0-0-0-0--0-0-0-0-|--7--7-7-7-7-7--7-7-7-7-7--7-7-|
--3--3-3-3-3-3--3-3-3-3-2--2-2-2-2-2--2-2-2-2-|--5--5-5-5-5-5--5-5-5-5-5--5-5-|
--3--3-3-3-3-3--3-3-3-3-3--3-3-3-3-3--3-3-3-3-|-------------------------------|


  S S E  S S S S E  S S S S E     S S S S E  S S S S E  S S S S  
-------------------------------|--------------------------------|
-------------------------------|----------6--6-6-6-6-6--6-6-6-6-|
--9-9-9--9-9-9-9-7--7-7-7-7-7--|--7-7-7-7-7--7-7-7-7-7--7-7-7-7-|
--7-7-7--7-7-7-7-8--8-8-8-8-8--|--8-8-8-8-8--8-8-8-8-8--8-8-8-8-|
--5-5-5--5-5-5-5-5--5-5-5-5-5--|--5-5-5-5-8--8-8-8-8-8--8-8-8-8-|
-------------------------------|--------------------------------|


  E  S S S S E  S S S S E  S S    S S E  S S S S E  S S S S E   
-------------------------------|-------------------------------|
-------------------------------|-------------------------------|
--7--7-7-7-7-7--7-7-7-7-9--9-9-|--9-9-9--9-9-9-9-7--7-7-7-7-7--|
--7--7-7-7-7-7--7-7-7-7-7--7-7-|--7-7-7--7-7-7-7-8--8-8-8-8-8--|
--5--5-5-5-5-5--5-5-5-5-5--5-5-|--5-5-5--5-5-5-5-5--5-5-5-5-5--|
-------------------------------|-------------------------------|


  S S S S E  S S S S E  S S S S    E  S S S S E  S S S S E  S S  
--------------------------------|-------------------------------|
----------6--6-6-6-6-6--6-6-6-6-|-------------------------------|
--7-7-7-7-7--7-7-7-7-7--7-7-7-7-|--7--7-7-7-7-7--7-7-7-7-9--9-9-|
--8-8-8-8-8--8-8-8-8-8--8-8-8-8-|--7--7-7-7-7-7--7-7-7-7-7--7-7-|
--5-5-5-5-8--8-8-8-8-8--8-8-8-8-|--5--5-5-5-5-5--5-5-5-5-5--5-5-|
--------------------------------|-------------------------------|


  S S E  S S S S E  S S S S E     S S S S E  S S S S E  S S S S  
-------------------------------|--------------------------------|
-------------------------------|----------6--6-6-6-6-6--6-6-6-6-|
--9-9-9--9-9-9-9-7--7-7-7-7-7--|--7-7-7-7-7--7-7-7-7-7--7-7-7-7-|
--7-7-7--7-7-7-7-8--8-8-8-8-8--|--8-8-8-8-8--8-8-8-8-8--8-8-8-8-|
--5-5-5--5-5-5-5-5--5-5-5-5-5--|--5-5-5-5-8--8-8-8-8-8--8-8-8-8-|
-------------------------------|--------------------------------|


  E  S S S S E  S S S S E  S S    S S E  S S S S E  S S S S E   
-------------------------------|-------------------------------|
-------------------------------|-------------------------------|
--7--7-7-7-7-7--7-7-7-7-9--9-9-|--9-9-9--9-9-9-9-7--7-7-7-7-7--|
--7--7-7-7-7-7--7-7-7-7-7--7-7-|--7-7-7--7-7-7-7-8--8-8-8-8-8--|
--5--5-5-5-5-5--5-5-5-5-5--5-5-|--5-5-5--5-5-5-5-5--5-5-5-5-5--|
-------------------------------|-------------------------------|


  S S S S E  S S S S E  S S S S    E  S S S S E  S S S S E  S S  
--------------------------------|-------------------------------|
----------6--6-6-6-6-6--6-6-6-6-|-------------------------------|
--7-7-7-7-7--7-7-7-7-7--7-7-7-7-|--7--7-7-7-7-7--7-7-7-7-9--9-9-|
--8-8-8-8-8--8-8-8-8-8--8-8-8-8-|--7--7-7-7-7-7--7-7-7-7-7--7-7-|
--5-5-5-5-8--8-8-8-8-8--8-8-8-8-|--5--5-5-5-5-5--5-5-5-5-5--5-5-|
--------------------------------|-------------------------------|


  S S E  S S S S E  S S S S E     S S S S E  S S S S E  S S S S  
-------------------------------|--------------------------------|
-------------------------------|----------6--6-6-6-6-6--6-6-6-6-|
--9-9-9--9-9-9-9-7--7-7-7-7-7--|--7-7-7-7-7--7-7-7-7-7--7-7-7-7-|
--7-7-7--7-7-7-7-8--8-8-8-8-8--|--8-8-8-8-8--8-8-8-8-8--8-8-8-8-|
--5-5-5--5-5-5-5-5--5-5-5-5-5--|--5-5-5-5-8--8-8-8-8-8--8-8-8-8-|
-------------------------------|--------------------------------|


  E  S S S S E  S S S S E  S S    S S E  S S S S E  S S S S E   
-------------------------------|-------------------------------|
-------------------------------|-------------------------------|
--7--7-7-7-7-7--7-7-7-7-9--9-9-|--9-9-9--9-9-9-9-7--7-7-7-7-7--|
--7--7-7-7-7-7--7-7-7-7-7--7-7-|--7-7-7--7-7-7-7-8--8-8-8-8-8--|
--5--5-5-5-5-5--5-5-5-5-5--5-5-|--5-5-5--5-5-5-5-5--5-5-5-5-5--|
-------------------------------|-------------------------------|

                                  Verse
                                       PM      PM      PM               
  S S S S E  S S S S E  S S S S    E.  E.  E.  E.  E.  E.  S S S S S S  
--------------------------------|--------------------------------------|
----------6--6-6-6-6-6--6-6-6-6-|--------------------------6-6-6-5-5---|
--7-7-7-7-7--7-7-7-7-7--7-7-7-7-|--7-------7-------7-------7-7-7-7-7-5-|
--8-8-8-8-8--8-8-8-8-8--8-8-8-8-|--7-------8-------7-------8-8-8-8-8-7-|
--5-5-5-5-8--8-8-8-8-8--8-8-8-8-|--5-------5-------5-------------------|
--------------------------------|------0-------0-------0---------------|


      PM      PM      PM                     PM      PM      PM               
  E.  E.  E.  E.  E.  E.  S S S S S S    E.  E.  E.  E.  E.  E.  S S S S S S  
--------------------------------------|--------------------------------------|
--------------------------6-6-6-5-5---|--------------------------6-6-6-5-5---|
--7-------7-------7-------7-7-7-7-7-5-|--7-------7-------7-------7-7-7-7-7-5-|
--7-------8-------7-------8-8-8-8-8-7-|--7-------8-------7-------8-8-8-8-8-7-|
--5-------5-------5-------------------|--5-------5-------5-------------------|
------0-------0-------0---------------|------0-------0-------0---------------|


      PM      PM                               PM      PM      PM               
  E.  E.  E.  E.  S  E  E.   S E  E.       E.  E.  E.  E.  E.  E.  S S S S S S  
--------------------------------------||---------------------------------------|
--------------------------------------||---------------------------6-6-6-5-5---|
--7-------7---------------------------||*--7-------7-------7-------7-7-7-7-7-5-|
--7-------8----------5--5------5--5---||*--7-------8-------7-------8-8-8-8-8-7-|
--5-------5-------3--5--5----3-5--5---||---5-------5-------5-------------------|
------0-------0---1s-3--3s---1-3--3---||-------0-------0-------0---------------|


      PM      PM      PM                     PM      PM      PM               
  E.  E.  E.  E.  E.  E.  S S S S S S    E.  E.  E.  E.  E.  E.  S S S S S S  
--------------------------------------|--------------------------------------|
--------------------------6-6-6-5-5---|--------------------------6-6-6-5-5---|
--7-------7-------7-------7-7-7-7-7-5-|--7-------7-------7-------7-7-7-7-7-5-|
--7-------8-------7-------8-8-8-8-8-7-|--7-------8-------7-------8-8-8-8-8-7-|
--5-------5-------5-------------------|--5-------5-------5-------------------|
------0-------0-------0---------------|------0-------0-------0---------------|


      PM      PM                                                               
  E.  E.  E.  E.  S  E  E.   S E  E.   3x  H.           E  S S S S E  S S S S  
---------------------------------------||-------------------------------------|
---------------------------------------||-------------------------------------|
--7-------7---------------------------*||--7------------5--5-5----------------|
--7-------8----------5--5------5--5---*||--7------------5--5-5-5-5-5--5-5-5-5-|
--5-------5-------3--5--5----3-5--5----||--5------------3--3-3-5-5-5--5-5-5-5-|
------0-------0---1s-3--3s---1-3--3----||----------------------3-3-3--3-3-3-3-|

Solo
  E.  S S S S S S S S S S S S S S S S S S S S S  
------------------------------------------------|
------------------------------------------------|
------7-L---5-L---------------------------------|
--------7-L---7-L-7-L---------7-L---------5-L---|
--5-------5-L---5-L-5-L-8-L-8-L-8-L-7-L-7-L-7-L-|
--5-------------------5-L-5-L-----5-L-5-L-----8-|


  E  S S S S S S S S S S S S S S S S S S S S S S  
-------------------------------------------------|
-------------------------------------------------|
-------7-L---5-L---------------------------5-L---|
-----7-L-7-L---7-L-7-L---------7-L---5-L-----5-L-|
--5--------5-L---5-L-5-L-8-L-8-L-8-L---7-L-----7-|
--5--------------------5-L-5-L-----5-L---8-L-----|


  E.  S S S S S S S S S S S S S S S S S S S S S  
------------------------------------------------|
------------------------------------------------|
------7-L---5-L---------------------------------|
--------7-L---7-L-7-L---------7-L---------5-L---|
--5-------5-L---5-L-5-L-8-L-8-L-8-L-7-L-7-L-7-L-|
--5-------------------5-L-5-L-----5-L-5-L-----8-|


  E  S S S S S S S S S S S S S S S S S S S S S S  
-------------------------------------------------|
-------------------------------------------------|
-------7-L---5-L---------------------------5-L---|
-----7-L-7-L---7-L-7-L---------7-L---5-L-----5-L-|
--5--------5-L---5-L-5-L-8-L-8-L-8-L---7-L-----7-|
--5--------------------5-L-5-L-----5-L---8-L-----|

Chorus
  E  S S S S E  S S S S E  S S S S E  S S S S  
----------------------------------------------|
----------------------------------------------|
--7--7-7-7-7-5--5-----------------------------|
--7--7-7-7-7-5--5-7-7-7-3--3-3-3-3-3--3-3-3-3-|
--5--5-5-5-5-3--3-7-7-7-3--3-3-3-3-3--3-3-3-3-|
------------------5-5-5-1--1-1-1-1-1--1-1-1-1-|


  E  S S S S E  S S S S E  S S S S E  S S S S  
----------------------------------------------|
----------------------------------------------|
--7--7-7-7-7-5--5-----------------------------|
--7--7-7-7-7-5--5-7-7-7-3--3-3-3-2-2--2-2-2-2-|
--5--5-5-5-5-3--3-7-7-7-3--3-3-3-3-3--3-3-3-3-|
------------------5-5-5-1--1-1-1-3-3--3-3-3-3-|


  E  S S S S E  S S S S E  S S S S E  S S S S  
----------------------------------------------|
----------------------------------------------|
--7--7-7-7-7-5--5-----------------------------|
--7--7-7-7-7-5--5-7-7-7-3--3-3-3-3-3--3-3-3-3-|
--5--5-5-5-5-3--3-7-7-7-3--3-3-3-3-3--3-3-3-3-|
------------------5-5-5-1--1-1-1-1-1--1-1-1-1-|


  E  S S S S E  S S S S E  S S S S E  S S S S  
----------------------------------------------|
----------------------------------------------|
----------------------------------------------|
--2--2-2-2-2-2--2-2-2-2-0--0-0-0-0-0--0-0-0-0-|
--3--3-3-3-3-3--3-3-3-3-2--2-2-2-2-2--2-2-2-2-|
--3--3-3-3-3-3--3-3-3-3-3--3-3-3-3-3--3-3-3-3-|

Verse
  E.    S  S  S  E.  S S S E.  E.  S S S S S S  
-----------------------------------------5-L---|
-------15-15-15-15-------------8---6-6-6-L-6-L-|
--7----14-14-14-14---7-7-7-7---7---7-7-7-L-L-7-|
--0---/12-12-12-12---0-0-0-0---0---0-0-0-------|
--5------------------5-5-5-5-------------------|
-----------------------------------------------|


  E.    S  S  S  E.  S S S E.  E.  S S S S S S  
-----------------------------------5-L---5-L---|
-------15-15-15-15---------8---8-----6-L-L-6-L-|
--7----14-14-14-14---7-7-7-7---7-------7-L-L-7-|
--0---/12-12-12-12---0-0-0-0---0---------------|
--5------------------5-5-5---------------------|
-----------------------------------------------|


  E.    S  S  S  E.  S S S E.  E.  S S S S S S  
-----------------------------------------5-L---|
-------15-15-15-15-------------8---6-6-6-L-6-L-|
--7----14-14-14-14---7-7-7-7---7---7-7-7-L-L-7-|
--0---/12-12-12-12---0-0-0-0---0---0-0-0-------|
--5------------------5-5-5-5-------------------|
-----------------------------------------------|


   E.   S  S  S  E.   S  S  S  E.   E.   S  S  S  S  S  S  
----------------------------------------------------------|
----------------------------------------------------------|
---9----9--9--9--9----9--9--9-12---12---12-12-12-12-12-12-|
--10---10-10-10-10---10-10-10-12---12---12-12-12-12-12-12-|
---7----7--7--7--7----7--7--7-10---10---10-10-10-10-10-10-|
----------------------------------------------------------|


  E.    S  S  S  E.  S S S E.  E.  S S S S S S  
-----------------------------------------5-L---|
-------15-15-15-15-------------8---6-6-6-L-6-L-|
--7----14-14-14-14---7-7-7-7---7---7-7-7-L-L-7-|
--0---/12-12-12-12---0-0-0-0---0---0-0-0-------|
--5------------------5-5-5-5-------------------|
-----------------------------------------------|


  E.    S  S  S  E.  S S S E.  E.  S S S S S S  
-----------------------------------5-L---5-L---|
-------15-15-15-15---------8---8-----6-L-L-6-L-|
--7----14-14-14-14---7-7-7-7---7-------7-L-L-7-|
--0---/12-12-12-12---0-0-0-0---0---------------|
--5------------------5-5-5---------------------|
-----------------------------------------------|


  E.    S  S  S  E.  S S S E.  E.  S S S S S S  
-----------------------------------------5-L---|
-------15-15-15-15-------------8---6-6-6-L-6-L-|
--7----14-14-14-14---7-7-7-7---7---7-7-7-L-L-7-|
--0---/12-12-12-12---0-0-0-0---0---0-0-0-------|
--5------------------5-5-5-5-------------------|
-----------------------------------------------|


   E.   S  S  S  E.   S  S  S  E.   E.   S  S  S  S  S  S  
----------------------------------------------------------|
----------------------------------------------------------|
---9----9--9--9--9----9--9--9-12---12---12-12-12-12-12-12-|
--10---10-10-10-10---10-10-10-12---12---12-12-12-12-12-12-|
---7----7--7--7--7----7--7--7-10---10---10-10-10-10-10-10-|
----------------------------------------------------------|

Solo 2
  E  S S S S S S S S S S S S S S S S S S S S S S   
--------------------------------------------------|
-------------------------------------6---6-8-6-8s-|
-------------------------5---5-7-5-7---7----------|
-------------5---5-7-5-7---7----------------------|
--5--5-8-5-8---8----------------------------------|
--------------------------------------------------|


   H        E   S  S  S  S  S  S  S  S Q.      
----------------------------------------------|
--10--------L-----10-13-11-10----10-----------|
---------------12-------------12----12-9------|
----------------------------------------------|
----------------------------------------------|
----------------------------------------------|


   S  S  S  S  S  S  S  S  S  S  S  S  S  S  S  S  S  S  S  S  S  E   S  
------------------------------------------------------------------------|
-----------15----------13-----------------------------------------------|
-----------------14----------12----14----------12-----------------------|
--12-12-12----12----12----12----12----14-15-14----15-14-12-15-14-12--15-|
------------------------------------------------------------------------|
------------------------------------------------------------------------|


   E.   E.   E   E   S  S  S S S S S S S S S S S S  
---------------------------------------------------|
---------------------------------------------------|
---------------------------------------------------|
--14---14---14--14--12-10-12-------5-------5---7---|
-----------------------------5-8-5---5-8-5---5---5-|
--12---12---12--12--10--8-10-----------------------|


   S S  S  S  S S  S S  S  S  S S  S S  S  S  S S  S S  S  S  S S  
------------------------------------------------------------------|
--10---10---------10---10---------10---10---------10---10---------|
--10---10---------10---10---------10---10---------10---10---------|
-----x----12-10-x----x----12-10-x----x----12-10-x----x----12-10-x-|
------------------------------------------------------------------|
------------------------------------------------------------------|


   S S  S  S  S S  S S  S S  S  S  S  S  S  S  S  S  Q.      
------------------------------------------------------------|
------------------------------------------------------------|
-----9-10-12-10-9-10-9----9---------------------------------|
--12-------------------12---12-10---------------------------|
----------------------------------13-12-10-12-10------------|
-------------------------------------------------13-12------|


   T  T  T  T  T  T  T  T  T  T  T  T  T  T  T  T  T  T  T  T  T  T  T  T  T  T 
--------------------------------------------------------------------------15-13-
--18-15-18-15----15-18-15-18-15----15-18-15-18-15----15-18-15-18-15-13-15-------
--------------17----------------17----------------17----------------------------
--------------------------------------------------------------------------------
--------------------------------------------------------------------------------
--------------------------------------------------------------------------------


   Q.      E   E   E   Q.      E.   E.   
--12------12--12--12--15------13---12---|
----------------------------------------|
---9-------9---9---9--12------10----9---|
----------------------------------------|
----------------------------------------|
----------------------------------------|

Verse
  E.    S  S  S  E.  S S S E.  E.  S S S S S S  
-----------------------------------5-5-5-5-L---|
-------15-15-15-15-------------8---6-6-6-L-6-L-|
--7----14-14-14-14---7-7-7-7---7---7-7-7-L-L-7-|
--0---/12-12-12-12---0-0-0-0---0---------------|
--5------------------5-5-5-5-------------------|
-----------------------------------------------|


  E.    S  S  S  E.  S S S E.  E.  S S S S S S  
-----------------------------------5-L---5-L---|
-------15-15-15-15---------8---8-----6-L-L-6-L-|
--7----14-14-14-14---7-7-7-7---7-------7-L-L-7-|
--0---/12-12-12-12---0-0-0-0---0---------------|
--5------------------5-5-5---------------------|
-----------------------------------------------|


  E.    S  S  S  E.  S S S E.  E.  S S S S S S  
-----------------------------------5-5-5-5-L---|
-------15-15-15-15-------------8---6-6-6-L-6-L-|
--7----14-14-14-14---7-7-7-7---7---7-7-7-L-L-7-|
--0---/12-12-12-12---0-0-0-0---0---------------|
--5------------------5-5-5-5-------------------|
-----------------------------------------------|


   E.   S  S  S  E.   S  S  S  E.   E.   S  S  S  S  S  S  
----------------------------------------------------------|
----------------------------------------------------------|
---9----9--9--9--9----9--9--9-12---12---12-12-12-12-12-12-|
--10---10-10-10-10---10-10-10-12---12---12-12-12-12-12-12-|
---7----7--7--7--7----7--7--7-10---10---10-10-10-10-10-10-|
----------------------------------------------------------|


  E.    S  S  S  E.  S S S E.  E.  S S S S S S  
-----------------------------------5-5-5-5-L---|
-------15-15-15-15-------------8---6-6-6-L-6-L-|
--7----14-14-14-14---7-7-7-7---7---7-7-7-L-L-7-|
--0---/12-12-12-12---0-0-0-0---0---------------|
--5------------------5-5-5-5-------------------|
-----------------------------------------------|


  E.    S  S  S  E.  S S S E.  E.  S S S S S S  
-----------------------------------5-L---5-L---|
-------15-15-15-15---------8---8-----6-L-L-6-L-|
--7----14-14-14-14---7-7-7-7---7-------7-L-L-7-|
--0---/12-12-12-12---0-0-0-0---0---------------|
--5------------------5-5-5---------------------|
-----------------------------------------------|


  E.    S  S  S  E.  S S S E.  E.  S S S S S S  
-----------------------------------5-5-5-5-L---|
-------15-15-15-15-------------8---6-6-6-L-6-L-|
--7----14-14-14-14---7-7-7-7---7---7-7-7-L-L-7-|
--0---/12-12-12-12---0-0-0-0---0---------------|
--5------------------5-5-5-5-------------------|
-----------------------------------------------|


   E.   S  S  S  E.   S  S  S  E.   E.   S  S  S  S  S  S        
----------------------------------------------------------|----||
----------------------------------------------------------|----||
---9----9--9--9--9----9--9--9-12---12---12-12-12-12-12-12-|----||
--10---10-10-10-10---10-10-10-12---12---12-12-12-12-12-12-|----||
---7----7--7--7--7----7--7--7-10---10---10-10-10-10-10-10-|----||
----------------------------------------------------------|----||




Duration Legend
---------------
W - whole
H - half
Q - quarter
E - 8th
S - 16th
T - 32nd
X - 64th
. - note dotted
|-n-|  - n-tuplets


Tab Legend
----------------
L - tied note
x - dead note
g - grace note
(n) - ghost note
> - accentuded note
NH - natural harmonic
AH - artificial harmonic
TH - tapped harmonic
SH - semi harmonic
PH - pitch harmonic
h - hammer on
p - pull off
b - bend
br - bendRelease
pb - preBend
pbr - preBendRelease
brb - bendReleaseBend
\n/ - tremolo bar dip
\n - tremolo bar dive
-/n - tremolo bar Release up
/n\ - tremolo bar inverted dip
/n - tremolo bar return
-\n - tremolo bar Release down
S - shift slide
s - legato slide
/ -  slide into from below or out of upwards
\ -  slide into from above or out of downwards
~ - vibrato
W - wide vibrato
tr - trill
TP - tremolo picking
T - tapping
S - slap
P - pop
< - fade in
^ - brush up
v - brush down
Добавлено: 30.05.2016
Другие материалы по этой песне:

Страница создана 22.07.2012
http://primanota.ru/i/warriors-chords.htm
Привет, Гость.
Предлагаем пройти революционный курс по гитаре.
Подарок от PrimaNota.Ru, забирай!