PrimaNota.ru - самый крупный в мире бесплатный архив песенных текстов, аккордов, табулатур и нот


I - Bridges Of Fire - таба, видео

Регистрация Запомнить меня
Войти через:  Facebook Google Twitter Vk Yandex Mail.ru

I - Bridges Of Fire - таба, видео

Печатать
Просмотров: 333
I'm not going to put in rhythms or anything because it's dead easy,
you can work it out by ear. This is just the notes.
You can hear by ear what strings you're meant to pick
to get a certain sound out of the chord. Obviously you don't pick all 5 or 6
strings at the one time for every chord.


* = Palm Mute
~ = Tremolo Pick
// = Slide
>> = Let Ring

Structure:
Section 1
Section 2
Section 3
Section 2
Interlude section (2:56 - 4:45) NOT TABBED HERE.
Section 1
Section 2
Section 3
Section 3 - Solo - NOT TABBED HERE.


Section 1


-2--2--2--2--|
-2--2--2--5--|
-4--4--4--4--|
-4--4--5--2--|
-2--2--2--2--|
-------------|

-2--2--2--2--|
-2--2--3--5--|
-4--4--4--4--|
-4--4--4--2--|
-2--2--2--2--|
-------------|

Section 2 (Verse)

This bar 3 times

    *  ~  *  ~  *  ~
---------------------|
---------------------|
---------------------|
-------10----9-----5-|
-0--0--7--0--7--0--7-|
-2//7-----7-----7----|
    *  ~  *  ~  *  ~

Then this bar once

             (Just tremolo pick all the way through the 54/55 chords)

    *  ~  *  ~~~~~
------------------|
------------------|
------------------|
-------7-----4--5-|
-0--0--5--0--5--5-|
-2//7-----2-------|
    *  ~  *  ~~~~~

Section 3 (Chorus)

                ~ ~ ~ ~ ~
-7--5-----2---------------|
-7--5-----2---------------|
-9--7-----4---------------|
-9--7--5--4--2--2-3-------|
-7--5--5--2--2------2-3-5-|
-7--5--3--2--0>>>>>>>>>>>-|
                ~ ~ ~ ~ ~

                              ~ ~ ~ ~ ~
-7--5-5--5--5--5-------2---------------|
-7--5--5--5--5--5------2---------------|
-9--7---7--7--7--7-----4---------------|
-9--7>>>>>>>>>>>>>--5--4--2--2-3-------|
-7--5>>>>>>>>>>>>>--5--2--2------2-3-5-|
-7--5>>>>>>>>>>>>>--3--2--0>>>>>>>>>>>-|
                              ~ ~ ~ ~ ~
Добавлено: 19.04.2012
Другие материалы по этой песне:

Страница создана 28.02.2012
http://primanota.ru/i/bridges-of-fire-chords.htm
Привет, Гость.
Предлагаем пройти революционный курс по гитаре.
Подарок от PrimaNota.Ru, забирай!