PrimaNota.ru - самый крупный в мире бесплатный архив песенных текстов, аккордов, табулатур и нот


Hypocrisy - Shamateur - текст песни, таба, видео

Регистрация Запомнить меня
Войти через:  Facebook Google Twitter Vk Yandex Mail.ru

Hypocrisy - Shamateur - текст песни, таба, видео

Печатать
Просмотров: 136
                             HYPOCRISY - SHAMATEUR
                       From the Album - THE FINAL CHAPTER
                         Copyright: NUCLEAR BLAST 1997
                           Version 1.0 - January 2001


Transcribed by: James Williams (Inverted)
       Solo by: Warlock and Inverted

For Questions, Comments, Newest Version, or Corrections contact
Inverted: at Inverted_one@hotmail.com

Check Out Death8699.com Metaltabs.com or dsrmusic.com for More
Transcriptions:http://www.Death8699.com http://www.Metaltabs.com


 .  - palm mute           /  - slide up to
 \  - slide down to       ~  - vibrato
 h  - hammer on           b  - Bend
 p  - pull off            Suffixes for bend
 t  - tap                 f  - full bend    h - half bend
 ph - pinched harmonic    q  - quarter bend t - tap bend
 *  - see comment         ^  - Hold bend    r release bend
 x  - Stuccatto           ~  - vibrato bend
 ,  - slight palm mute    () - ghost note, sustained note
 "  - tremolo note        <> - Trill
 w  - wammy bar

Tuning: "B"E"A"D"G"B"e" or six string "B"E"A"D"G"B"

SHAMATEUR...

Riff 1
|------------------------------------------------------------------------
|------------------------------------------------------------------------
|------------------------------------------------------------------------
|-3-3-3-3--2-2-2-2--2-2-2-2--2-2-2-2--3-3-3-3--2-2-2-2-------------------
|-1-1-1-1--0-0-0-0--0-0-0-0--0-0-0-0--1-1-1-1--0-0-0-0--4-4-4-4--5-5-5-5-
|-------------------------------------------------------2-2-2-2--3-3-3-3-

 ------------------------------------------------------------------------
 ------------------------------------------------------------------------
 ------------------------------------------------------------------------
 -------------------------------------------------------4-4-4-4--5-5-4-4-
 -7-7-7-7--6-6-6-6--6-6-6-6--6-6-6-6--7-7-7-7--6-6-6-6--2-2-2-2--3-3-2-2-
 -5-5-5-5--4-4-4-4--4-4-4-4--4-4-4-4--5-5-5-5--4-4-4-4-------------------

 ------------------------------------------------------------------------
 ------------------------------------------------------------------------
 ------------------------------------------------------------------------
 ------------------------------------------------------------------------
 -3-3-3-3--2-2-2-2--2-2-2-2--2-2-2-2--3-3-3-3--2-2-2-2--4-4-4-4--5-5-5-5-
 -1-1-1-1--0-0-0-0--0-0-0-0--0-0-0-0--1-1-1-1--0-0-0-0--2-2-2-2--3-3-3-3-

 ------------------------------------------------------------------------|
 ------------------------------------------------------------------------|
 ------------------------------------------------------------------------|
 -------------------------------------------------------4-4-4-4--5-5-4-4-|
 -7-7-7-7--6-6-6-6--6-6-6-6--6-6-6-6--7-7-7-7--6-6-6-6--2-2-2-2--3-3-2-2-|
 -5-5-5-5--4-4-4-4--4-4-4-4--4-4-4-4--5-5-5-5--4-4-4-4-------------------|

Riff 2
|--------------------------------|------------------------------
|--------------------------------|------------------------------
|--------------------------------|------------------------------
|---------------------10""-9"-7"-|------------------------------
|-8""-7""""""-8""-7""------------|-8""-7""""""-8""-7""-6""-5""--
|--------------------------------|------------------------------

 --------------------------------|-------------------------------|
 --------------------------------|-------------------------------|
 --------------------------------|-------------------------------|
 ---------------------10""-9"-7"-|-------------------------------|
 -8""-7""""""-8""-7""------------|-8""-7""""""-8""-7""-6""-7"-9"-|
 --------------------------------|-------------------------------|

Riff 3
|----------------------------------------------------------------|
|----------------------------------------------------------------|
|----------------------------------------------------------------|
|--10"""-9"""------------------------------------------6"-7"-9"--|
|-------------10"""-9"""-5"-7"-----------5""-7"-8"-10"-----------|
|------------------------------7"-5""-7"-------------------------|

Riff 4
|-------------------------------------------------------|
|-------------------------------------------------------|
|-------------------------------------------------------|
|--10"""-12'10'12'-10"""-7""-9"""-7'6'7'-6"""-6"-7"-9"--|
|-------------------------------------------------------|
|-------------------------------------------------------|

Solo
|------------------------------------------------------------------------
|-------------------------------------------------------8-10--12-w-w-w-w-
|-----------------------------------------------7--9-11------------------
|---------7-9~~---------7-9-10--9-7h9p7--7-9-10--------------------------
|--7-9-10--------7-9-10--------------------------------------------------
|------------------------------------------------------------------------
|------------------------------------------------------------------------

 ------------------------------------------------------------------------
 -10-8-------------------------------------------------------------------
 ------11-9-7------------------------------------------------------------
 -------------10--9-7h9p7--9-7-----------------9\10-7--7\9-9\10-10/9-9/7-
 ------------------------------10-9--7-----------------------------------
 --------------------------------------10-9-7----------------------------
 ------------------------------------------------------------------------
                           . .  . .  . .  . .

 -----------------------------------------------------------------------
 -----------------------------------------------------------------------
 -----------------------------------------------------------------------
 -9\10-7--7\9-9\10-9--7\999--9\111111--11\121212--12\141414--14\161616--
 -----------------------------------------------------------------------
 -----------------------------------------------------------------------
 -----------------------------------------------------------------------

 ----------------------------------|
 ----------------------------------|
 ----------------------------------|
 --16--14-12--14-12-11--12-11-9~~--|
 ----------------------------------|
 ----------------------------------|
 ----------------------------------|

 Check out my other tabs by Hypocrisy, Grave, Obituary
and Six Feet Under.
Добавлено: 11.03.2012
Другие материалы по этой песне:

Страница создана 21.02.2012
http://primanota.ru/hypocrisy/shamateur-chords.htm
Привет, Гость.
Предлагаем пройти революционный курс по гитаре.
Подарок от PrimaNota.Ru, забирай!