PrimaNota.ru - самый крупный в мире бесплатный архив песенных текстов, аккордов, табулатур и нот


Hypocrisy - Eraser - текст песни, таба, бас-таба, видео

Регистрация Запомнить меня
Войти через:  Facebook Google Twitter Vk Yandex Mail.ru

Hypocrisy - Eraser - текст песни, таба, бас-таба, видео

Печатать
Просмотров: 320
Авторы текста: Mikael Hedlund, Peter Tägtgren, Lars Szöke
-----------------------------------------------------------------------------
                             Eraser - Hypocrisy
-----------------------------------------------------------------------------
Tabbed by:Clancy 13


UPDATE:
mostly rewrote my tab because it is mostly wrong. lol.

Bass intro
|--------------------------------------------------------------------------|
|------2-------2-1-2-1------2-------2-1-2-1------2-------2-1-2-1-----------|
|-0-2-3--0-2-3---------0-2-3--0-2-3---------0-2-3--0-2-3-------------------|

repeat this 4 times(CLEAN)

gtr 1 (drop C)
|----------------------------------------------------|
|----------------------------------------------------|
|-----9-11-12----9--11-12-11-12-11--5-5-4-4----------|  repeat as needed
|--10---------10--------------------5-5-4-4----------|
|-----------------------------------3-3-2-2----------|
|----------------------------------------------------|

Gtr 2 (drop c)
|-----------------------------------------------|-----|
|-----------------------------------------------|-----|
|-----------------------------------------------|-----|
|-------2-------2-1-2-1-------2-------2-1-2-1---|-3-1-| play with gtr1
|-0-2-3---0-2-3---------0-2-3---0-2-3-----------|-----|
|-----------------------------------------------|-----|

Both guitars, rythym.
|-------------------------------------------------------------------|
|-------------------------------------------------------------------|
|-2-2-2-2-2-2-2-2-2-2-2-2-5-4--2-2-2-2-2-2-2-2-2-2-2-5-4------------|
|-2-2-2-2-2-2-2-2-2-2-2-2-5-4--2-2-2-2-2-2-2-2-2-2-2-5-4------------|
|-0-0-0-0-0-0-0-0-0-0-0-0-3-2--0-0-0-0-0-0-0-0-0-0-0-3-2------------|
|-------------------------------------------------------------------|

|--------------------------------------------------------------------------|
|--------------------------------------------------------------------------|
|--------------------------------------------------------------------------|
|--------------------------------------------------------------------------|
|--------------------------------------------------------------------------|
|--------------------------------------------------------------------------|


repeat as needed

etc. i'm still figuring out some parts of the song, most of the chorus and solo. I'll 
on to it ASAP
Добавлено: 02.03.2012
Другие материалы по этой песне:

Страница создана 02.03.2012
http://primanota.ru/hypocrisy/eraser-chords.htm
Привет, Гость.
Предлагаем пройти революционный курс по гитаре.
Подарок от PrimaNota.Ru, забирай!