PrimaNota.ru - самый крупный в мире бесплатный архив песенных текстов, аккордов, табулатур и нот


Hypocrisy - Turn The Page - текст песни, таба, видео

Регистрация Запомнить меня
Войти через:  Facebook Google Twitter Vk Yandex Mail.ru

Hypocrisy - Turn The Page - текст песни, таба, видео

Печатать
Просмотров: 150
============================================================================

                        Turn the Page
 
                         Hypocrisy

                         Catch 22
============================================================================


Tabbed by: John Moores
           mooresjw@mail.uc.edu

Tuning: Drop A  (A E A D F# B)


 *  = Palm Mute
 @  = Pinched harmonic
 x  = muted
(5) = natural harmonic on said fret
 b  = bend string
 r  = return string


Intro
0:00

Guitar I

|---10-10-10-11-10-10-10-10-|     |--(10)-(10)-(10)------|
|---------------------------|     |----------------------|
|---------------------------|     |----------------------|
|---------------------------|  x4 |----------------------|
|---------------------------|     |----------------------|
|---------------------------|     |----------------------|
-->> Using a wah effect


0:05

Guitar I

|---10-10-10-11-10-10-10-10--|     |--(10)-(10)-(10)------|
|----------------------------|     |----------------------|
|----------------------------|     |----------------------|
|----------------------------| x3  |----------------------|  x2
|----------------------------|     |----------------------|
|----------------------------|     |----------------------|
-->> Using a wah effect


Guitar II
|----|------------------|     |----------------------|
|----|------------------|     |----------------------|
|----|------------------|     |----------------------|
|----|------------------| x3  |----------------------|   x2
|----|------------------|     |----------------------|
|-4~-|--0-0-0-1-0-0-0-0-|     |--0-0-0-1-0-0-0-4~----|



Verse 1
0:17

Guitar I & II
|------------------|     |---------------------|
|------------------|     |---------------------|
|------------------|     |---------------------|
|--0-----1---------| x3  |--0-----1---4-4-4-4--|   x2
|--0-0-0-1-0-0-0-0-|     |--0-0-0-1-0-4-4-4-4--|
|--0-0-0-1-0-0-0-0-|     |--0-0-0-1-0-4-4-4-4--|
     * *   * * * *            * *   


|-----------------------|
|-----------------------|
|-----------------------|
|--0--1--0--4--1--3-----|
|--0--1--0--4--1--3-----|
|--0--1--0--4--1--3-----|


|------------------|
|------------------|
|------------------|
|--0-----1---------| x2
|--0-0-0-1-0-0-0-0-|
|--0-0-0-1-0-0-0-0-|
     * *   * * * *   

|-----------------------|-----|
|-----------------------|-----|
|-----------------------|-----|
|--0--1--0--4--1--3-----|--0--|
|--0--1--0--4--1--3-----|--0--|
|--0--1--0--4--1--3-----|--0--|



Intro Riff
0:35

Guitar I

|---10-10-10-11-10-10-10-10-|     |--(10)-(10)-(10)------|
|---------------------------|     |----------------------|
|---------------------------|     |----------------------|
|---------------------------|  x4 |----------------------|
|---------------------------|     |----------------------|
|---------------------------|     |----------------------|
-->> Using a wah effect



0:39

Guitar I

|---10-10-10-11-10-10-10-10-|     |--(10)-(10)-(10)------|
|---------------------------|     |----------------------|
|---------------------------|     |----------------------|
|---------------------------|  x4 |----------------------|  x2
|---------------------------|     |----------------------|
|---------------------------|     |----------------------|
-->> Using a wah effect


Guitar II
|----|------------------|     |----------------------|
|----|------------------|     |----------------------|
|----|------------------|     |----------------------|
|----|------------------| x3  |----------------------|   x2
|----|------------------|     |----------------------|
|-4~-|--0-0-0-1-0-0-0-0-|     |--0-0-0-1-0-0-0-4~----|


Verse 2
0:50

Guitar I & II
|------------------|     |---------------------|
|------------------|     |---------------------|
|------------------|     |---------------------|
|--0-----1---------| x3  |--0-----1---4-4-4-4--|   x2
|--0-0-0-1-0-0-0-0-|     |--0-0-0-1-0-4-4-4-4--|
|--0-0-0-1-0-0-0-0-|     |--0-0-0-1-0-4-4-4-4--|
     * *   * * * *            * *   

|-----------------------|
|-----------------------|
|-----------------------|
|--0--1--0--4--1--3-----|
|--0--1--0--4--1--3-----|
|--0--1--0--4--1--3-----|

|------------------|
|------------------|
|------------------|
|--0-----1---------| x2
|--0-0-0-1-0-0-0-0-|
|--0-0-0-1-0-0-0-0-|
     * *   * * * *   

|-----------------------|
|-----------------------|
|-----------------------|
|--0--1--0--4--1--3-----|
|--0--1--0--4--1--3-----|
|--0--1--0--4--1--3-----|

|------------------|
|------------------|
|------------------|
|--0-----1---------| x2
|--0-0-0-1-0-0-0-0-|
|--0-0-0-1-0-0-0-0-|
     * *   * * * *   

|-----------------------|
|-----------------------|
|-----------------------|
|--0--1--0--4--1--3-----|
|--0--1--0--4--1--3-----|
|--0--1--0--4--1--3-----|


Chorus
1:14

Guitar I
|----------------------------------------|
|----------------------------------------|
|----------------------------------------|
|--8-8-8-8-8-8-8-8---0-0-0-0-0-0-0-0-0---|
|--8-8-8-8-8-8-8-8---0-0-0-0-0-0-0-0-0---|
|--8-8-8-8-8-8-8-8---0-0-0-0-0-0-0-0-0---|
                                             x2
|----------------------------------------|
|----------------------------------------|
|----------------------------------------|
|--8-8-8-8-8-8-8-8---5-5-5-5-5-5-5-5-5---|
|--8-8-8-8-8-8-8-8---5-5-5-5-5-5-5-5-5---|
|--8-8-8-8-8-8-8-8---5-5-5-5-5-5-5-5-5---|


Guitar II
-->> Using a wah Effect
|----------------------------------------|
|-------------------------------88-------|
|--7777-9999-10-10-10-10---7777----77-99-|
|----------------------------------------|
|----------------------------------------|
|----------------------------------------|



Post-Chorus
1:35

Guitar I
|----------------------------------------|
|----------------------------------------|
|----------------------------------------|
|----------------------------------------|
|----------------------------------------|
|--0-0-0-1-0-0-0-0---0-0-0-1-0-0-0-4~----|


Guitar II
|----------------------------------------|
|----------------------------------------|
|----------------------------------------|
|--0-------------------------------444---|
|--0-------------------------------444---|
|--0-------------------------------444---|
   ^ Staccato


Intro Riff - Revisit
1:38

Guitar I

|---10-10-10-11-10-10-10-10-|     |--(10)-(10)-(10)------|
|---------------------------|     |----------------------|
|---------------------------|     |----------------------|
|---------------------------|  x4 |----------------------|  x2
|---------------------------|     |----------------------|
|---------------------------|     |----------------------|
-->> Using a wah effect


Guitar II
|----|------------------|     |----------------------|
|----|------------------|     |----------------------|
|----|------------------|     |----------------------|
|----|------------------| x3  |----------------------|   x2
|----|------------------|     |----------------------|
|-4~-|--0-0-0-1-0-0-0-0-|     |--0-0-0-1-0-0-0-4~----|

Verse 3
1:48

Guitar I & II
|------------------|     |---------------------|
|------------------|     |---------------------|
|------------------|     |---------------------|
|--0-----1---------| x3  |--0-----1---4-4-4-4--|   x2
|--0-0-0-1-0-0-0-0-|     |--0-0-0-1-0-4-4-4-4--|
|--0-0-0-1-0-0-0-0-|     |--0-0-0-1-0-4-4-4-4--|
     * *   * * * *            * * 

Chorus
1:59

Guitar I

|----------------------------------------|
|----------------------------------------|
|----------------------------------------|
|--8-8-8-8-8-8-8-8---0-0-0-0-0-0-0-0-0---|
|--8-8-8-8-8-8-8-8---0-0-0-0-0-0-0-0-0---|
|--8-8-8-8-8-8-8-8---0-0-0-0-0-0-0-0-0---|
                                             x2
|----------------------------------------|
|----------------------------------------|
|----------------------------------------|
|--8-8-8-8-8-8-8-8---5-5-5-5-5-5-5-5-5---|
|--8-8-8-8-8-8-8-8---5-5-5-5-5-5-5-5-5---|
|--8-8-8-8-8-8-8-8---5-5-5-5-5-5-5-5-5---|


Guitar II
-->> Using a wah Effect
|----------------------------------------|
|-------------------------------88-------|
|--7777-9999-10-10-10-10---7777----77-99-|
|----------------------------------------|
|----------------------------------------|
|----------------------------------------|



Bridge
2:20


Guitar I
|----------------------------------------|
|----------------------------------------|
|----------------------------------------|
|----------------------------------------|
|--------------------------------111111--|
|--0--3--0--1~--0----0--3--0--1--111111--|
                                 ******

Guitar II
|----------------------------------------|
|----------------------------------------|
|----------------------------------------|
|--0-------------------------------------|
|--0-----------------------------111111--|
|--0-----------------------------111111--|
                                 ******


Guitar I & II   (One guitar mutes, the other doesn't)
|----------------------------------------|
|----------------------------------------|
|----------------------------------------|
|--0--3--0--1~---0---0--3--0--1--111111--|  x2
|--0--3--0--1~---0---0--3--0--1--111111--|
|--0--3--0--1~---0---0--3--0--1--111111--|
                                 ******


Guitar I & II
|------------------------------------------|
|------------------------------------------|
|------------------------------------------|
|-0-0--3--0--1--00-0--0-0-3--0--1--111111--|  x2
|-0-0--3--0--1--00-0--0-0-3--0--1--111111--|
|-0-0--3--0--1--00-0--0-0-3--0--1--111111--|
                 *                 ******

2:46

Guitar I

|--------------------------------------------|
|--------------------------------------------|
|--------------------------------------------|
|--3-----1---------------3-----1-------------|  x4
|--3-0-0-1--0-0-0-0-0-0--3-0-0-1-0-0-0-0-0-0-|
|--3-0-0-1--0-0-0-0-0-0--3-0-0-1-0-0-0-0-0-0-|
     * *    * * * * * *    * *   * * * * * *


Guitar II
>>With Wah Effect - somewhat hard to hear, 
this is my guess - repeat till next section

|------------------------(8)-------------|
|---(8)---------------------(9)----------|
|--------(9)------(9)-----------(9)------|
|-------------(9)------------------------|
|----------------------------------------|
|----------------------------------------|


3:01

Guitar I & II
|--------------------------------------------|
|--------------------------------------------|
|--------------------------------------------|
|--------------------------------------------| x2
|--------------------------------------------|
|--3-0-0-1--0-0-0-0-0-0--3-0-0-1-0-0-0-0-0-0-|



Solo
3:15

Guitar I   - Still working on it
-->> Using wah effect

|----------------------------------------|
|----------------------------------------|
|----------------------------------------|
|----------------------------------------|
|----------------------------------------|
|----------------------------------------|


Guitar II
|----------------------------------------|
|----------------------------------------|
|----------------------------------------|
|--6-0-5-0-3/5-0-0-6-0-0-5-0-0-----------|
|--6-0-5-0-3/5-0-0-6-0-0-5-0-0-----------|
|--6-0-5-0-3/5-0-0-6-0-0-5-0-0-----------|
     *   *     * *   * *   * *
                                            
|----------------------------------------|
|----------------------------------------|
|----------------------------------------|
|--6-0-5-0-3/5-0-0-3-0-0-2-0-0-----------|
|--6-0-5-0-3/5-0-0-3-0-0-2-0-0-----------|
|--6-0-5-0-3/5-0-0-3-0-0-2-0-0-----------|
     *   *     * *   * *   * *


|----------------------------------------|
|----------------------------------------|
|----------------------------------------|
|--6-0-5-0-3/5-0-0-6-0-0-5-0-0-----------|
|--6-0-5-0-3/5-0-0-6-0-0-5-0-0-----------|
|--6-0-5-0-3/5-0-0-6-0-0-5-0-0-----------|
     *   *     * *   * *   * *
                                            
|----------------------------------------|
|----------------------------------------|
|----------------------------------------|
|--6-0-5-0-3/5-0-0-3-0-0-----------------|
|--6-0-5-0-3/5-0-0-3-0-0----Rest---------|
|--6-0-5-0-3/5-0-0-3-0-0-----------------|
     *   *     * *   * 


|----------------------------------------|
|----------------------------------------|
|----------------------------------------|
|--6-0-5-0-3/5-0-0-3-0-0-2-0-0-----------|  x4
|--6-0-5-0-3/5-0-0-3-0-0-2-0-0-----------|
|--6-0-5-0-3/5-0-0-3-0-0-2-0-0-----------|
     *   *     * *   * *   * *


Chorus
3:37

Guitar I

|----------------------------------------|
|----------------------------------------|
|----------------------------------------|
|--8-8-8-8-8-8-8-8---0-0-0-0-0-0-0-0-0---|
|--8-8-8-8-8-8-8-8---0-0-0-0-0-0-0-0-0---|
|--8-8-8-8-8-8-8-8---0-0-0-0-0-0-0-0-0---|
                                             x2
|----------------------------------------|
|----------------------------------------|
|----------------------------------------|
|--8-8-8-8-8-8-8-8---5-5-5-5-5-5-5-5-5---|
|--8-8-8-8-8-8-8-8---5-5-5-5-5-5-5-5-5---|
|--8-8-8-8-8-8-8-8---5-5-5-5-5-5-5-5-5---|


Guitar II
-->> Using a wah Effect
|----------------------------------------|
|-------------------------------88-------|
|--7777-9999-10-10-10-10---7777----77-99-|
|----------------------------------------|
|----------------------------------------|
|----------------------------------------|


Ending
3:57

Guitar I & II
|----------------------------------------|
|----------------------------------------|
|----------------------------------------|
|--0--3--0--1~---0---0--3--0--1--111111--|
|--0--3--0--1~---0---0--3--0--1--111111--|
|--0--3--0--1~---0---0--3--0--1--111111--|
                                 ******


Please comment and Rate!!



Добавлено: 02.07.2012
Другие материалы по этой песне:

Страница создана 02.03.2012
http://primanota.ru/hypocrisy/turn-the-page-chords.htm
Привет, Гость.
Предлагаем пройти революционный курс по гитаре.
Подарок от PrimaNota.Ru, забирай!