PrimaNota.ru - самый крупный в мире бесплатный архив песенных текстов, аккордов, табулатур и нот


Hypocrisy - Stillborn - текст песни, таба, видео

Регистрация Запомнить меня
Войти через:  Facebook Google Twitter Vk Yandex Mail.ru

Hypocrisy - Stillborn - текст песни, таба, видео

Печатать
Просмотров: 257
Уроки эстрадного вокала в Санкт-Петербурге
Авторы текста: Dan Swanö
+--------------------------------------------------------------------------+
| This file is the author's own work and represents their interpretation   |
| of the song. You may only use this file for private study, scholarship,  |
| or research.                                                             |
+--------------------------------------------------------------------------+

Artist: Hypocrisy - Stillborn
Album: The Arrival (2004)
Tuning: EADGBe (Standard)
Tabbed by: Kasper K.

Another Hypocrisy tab from me, hope you like it.

Look at bottom to see in which order to play the song.
Listen to the song for the rhythm.

\ = slide down
/ = slide up


Intro riff:
e|----------------------------|
B|----------------------------|
G|----------------------------|
D|----------------------------|
A|----------------------------|
E|-1-1-2-1-1-1-1-1-2-2-2-2-2--|

e|----------------------------|
B|----------------------------|
G|----------------------------|
D|----------------------------|
A|----------------------------|
E|-1-1-2-1-1-1-1-1-2-2-2-2-2--|

e|---------------------------|
B|---------------------------|
G|---------------------------|
D|---------------------------|
A|---------------------------|
E|-6-6-6-6-6-6-6-6-4-4-4-4-4-|

e|---------------------------|
B|---------------------------|
G|---------------------------|
D|---------------------------|
A|---------------------------|
E|-1-1-2-1-1-1-1-1-2-2-2-2-2-|
Play this x1 time

Riff 1:
e|--------------------------------------|
B|--------------------------------------|
G|--------------------------------------|
D|-33-4-3-3333-44444--33-4-3-3333-44444-|
A|-33-4-3-3333-44444--33-4-3-3333-44444-|
E|-11-2-1-1111-22222--11-2-1-1111-22222-|

e|--------------------------------------|
B|--------------------------------------|
G|--------------------------------------|
D|-88888-888-66666--33-4-3-33-3-44444---|
A|-88888-888-66666--33-4-3-33-3-44444---|
E|-66666-666-44444--11-2-1-1111-22222---|
Play this x2 times

Riff 2a:
e|-------------------------------------------|
B|-------------------------------------------|
G|-------------------------------------------|
D|---10-8-6-5---------10-8-6-5---------------|
A|-8----------8/10--8----------8/10----------|
E|-------------------------------------------|

e|-----------------------------------------------|
B|-----------------------------------------------|
G|-----------------------------------------------|
D|-----------------------------------------------|
A|-10-10-10-10-10-10-10-8-8-8-8-8--8-8-8-8-7-7-7-|
E|-----------------------------------------------|
(trem pick this riff)
Play this x2 times

Riff 2b:
e|-------------------------------------------------------|
B|-------------------------------------------------------|
G|-------------------------------------------------------|
D|-10101010-121212-88888-121212-101010-666-55------------|
A|--------------------------------------------888-101010-|
E|-------------------------------------------------------|
(trem pick this riff)
Play this x2 times

Riff 3:
e|--------------------------------|
B|--------------------------------|
G|--------------------------------|
D|-22222-9-10-9-22222-9-10-9-7----|
A|-22222--------22222-------------|
E|-00000--------00000-------------|

e|--------------------------------|
B|--------------------------------|
G|--------------------------------|
D|-22222-9-10-9-22222-9-10-9-7/10-|
A|-22222--------22222-------------|
E|-00000--------00000-------------|
Play this x1 time

Riff 4:
e|--------------------------------|
B|--------------------------------|
G|--------------------------------|
D|-333-44-------------------------|
A|-333-44-------------------------|
E|-111-22-1111-22222--------------|
P.M...............................
Play this x4 times

Breakdown riff a:
e|--------------------------------|
B|--------------------------------|
G|--------------------------------|
D|-3333-333-44-44-----------------|
A|-3333-333-44-44-----------------|
E|-1111-111-22-22-----------------|

e|--------------------------------|
B|--------------------------------|
G|--------------------------------|
D|-3333-333-444444----------------|
A|-3333-333-444444----------------|
E|-1111-111-222222----------------|
Play this x2 times

Breakdown riff b:
e|-----|
B|-----|
G|-----|
D|-4-3-|
A|-4-3-|
E|-2-1-|

e|---------------------------------|
B|---------------------------------|
G|---------------------------------|
D|---------------------------------|
A|---------------------------------|
E|-1-0-0-1-0-0-1-0-0-1-1-0-3-3-3-3-|
Play this x11 times

+----------------------+
Order to play the song:

1: Intro riff
2: Riff 1
3: Riff 2a
4: Riff 2b
5: Riff 3
6: Riff 4
7: Riff 1
8: Riff 2a
9: Riff 2b
10: Breakdown riff a
11: Breakdown riff b
12: Riff 3
13: Riff 2b (Play twice)
+----------------------+
Добавлено: 07.06.2012
Другие материалы по этой песне:

Страница создана 07.06.2012
http://primanota.ru/hypocrisy/stillborn-chords.htm
Привет, Гость.
Предлагаем пройти революционный курс по гитаре.
Подарок от PrimaNota.Ru, забирай!