PrimaNota.ru - самый крупный в мире бесплатный архив песенных текстов, аккордов, табулатур и нот


Hypocrisy - Request Denied - текст песни, таба, видео

Регистрация Запомнить меня
Войти через:  Facebook Google Twitter Vk Yandex Mail.ru

Hypocrisy - Request Denied - текст песни, таба, видео

Печатать
Просмотров: 152
Уроки эстрадного вокала в Санкт-Петербурге
HYPOCRISY

REQUEST DENIED  

 INTRO
|-------------------|
|-------------------|
|-------------------|  
|-------\-----------|
|-------\-slide-----|
|-------\-----------|

   RIFF A                                      Play x 4
|-------------------------------------------------------|
|-------------------------------------------------------| 
|-----------------------------------2--2--2--2--2-------| GTR. 1
|--2--2--2--2--2--2--2--2--2--2--2--2--2--2--2--2-------|
|--2--2--2--2--2--2--2--2--2--2--2--0--0--0--0--0-------|
|--0--0--0--0--0--0--0--0--0--0--0----------------------|
|
|-------------------------------------------------------|
|-----------12~~-----------------12-10~~----------------|
|--9-----9-----------------9----------------------------| GTR. 2
|-----9-----------------------9-------------------------|
|-------------------------------------------------------|
|-------------------------------------------------------|

   RIFF B
|-----------------------------------------|
|-----------------------------------------|
|------------------------0----------------| GTR. 1
|------2-------0-------0---0--------------| (clean with chorus)
|----2---2---0---0---2-------2------------|
|--0-------2-------3-----------3-2--------|

Play RIFF B for a total of eight times, last time w/ Fill 1

|--har.-----------------------------------|
|--3--------------------------------------|
|-----------------------------------------| GTR. 2
|------------\----------------------------|
|------------\-slide----------------------|
|------------\----------------------------|
|
|--3--------------------------------------|
|--har.-----------------------------------|
|-----------------------------------------| GTR. 3
|--------------------\--------------------|
|--------------------\-slide--------------|
|--------------------\--------------------|

   RIFF C
|-----------------------------------------|
|-----------------------------------------|
|--2--------------------------------------| GTR. 1
|--2---------------2-4-2--------4---------|
|--0---------------0-2-3--------5---------|
|-----------------------------------------|
|
|-----------------------------------------|
|-----------------------------------------|
|-----------------------------------------| GTR. 2
|--2---------------2-4-5--------7---------|
|-----------------------------------------|
|-----------------------------------------|
|
|-----------------------------------------|
|-----------------------------------------|
|-----------------------------------------| GTR. 3
|-----------------------------------------|
|--3---------------3-5-7--------9---------|
|-----------------------------------------|

   RIFF D
|--------------------------------------------------|
|--------------------------------------------------|
|---------------------------2---5--------4---------| GTR. 1
|--2-------------2----------0-4-5--------4---------|
|--2-------------2------------2-3--------2---------|
|--0-------------0---------------------------------|
|                           . .
|--------------------------------------------------|
|--------------------------------------------------|
|---------------------------2-------5--------4-----| GTR. 2
|--2-------------2----------0-4---5---5----4---4---|
|--2-------------2------------2-3--------2---------|
|--0-------------0---------------------------------|
                            . .

Play RIFF D for a total of four times

   RIFF E
|--------------------------------------------------|
|--------------------------------------------------|
|--2-------------------4-------------------------4-| GTR. 1
|--2-------------2-1-2-4------------2-2----------4-|
|--0-------------0-2-0-2------------2-2----------2-|
|-----------------------------------0-0------------|
|
|--------------------------------------------------|
|--------------------------------------------------|
|--------------------------------------------------| GTR. 2
|--------------------------------------------------|
|--3-------------3-5-3-2-------------------------5-|
|-----------------------------------0-0------------|
|
|--------------------------------------------------|
|--------------------------------------------------|
|--------------------------------------------------| GTR. 3
|--2-------------2-4-2-1-------------------------4-|
|-----------------------------------2-2------------|
|--------------------------------------------------|

(Continue RIFF E)                    (End of RIFF E)
|--------------------------------------------------|
|--------------------------------------------------|
|--5-------------5-7-5-4------------4-4------------| GTR. 1
|--5-------------5-7-5-4------------4-4------\-----|
|--3-------------3-5-3-2------------2-2------\slide|
|--------------------------------------------\-----|
|
|--------------------------------------------------|
|--------------------------------------------------|
|----------------------------------/4-4------------| GTR. 2
|--2-------------2-4-2-1---------------------------|
|--------------------------------------------------|
|--------------------------------------------------|
|
|--------------------------------------------------|
|--------------------------------------------------|
|----------------------------------/8-8------------| GTR. 3
|--5-------------5-7-5-4---------------------------|
|--------------------------------------------------|
|--------------------------------------------------|

Play RIFF E two times
Play RIFF A

   Interlude
|--------------------------------------------------------|
|--------------------------------------------------------|
|--------------------------------------------------------| GTR. 1
|--2-----------------------------------------------------|
|--2-----------------------------------------------------|
|--0-----------------------------------------------------|
|
|--------------------------------------------------------|
|-------------12-/13--12--10--8-/10---12-10--8--/10--7---| 
|-/9--11--12---------------------------------------------| GTR. 2 
|--------------------------------------------------------|  (piano
|--------------------------------------------------------|arranged for
|--------------------------------------------------------|   guitar)
|
|--------------------------------------------------------|
|--------------------------------------------------------|
|-/9------------------9-/11--12--11----12-/14-12-11-12---| GTR. 3
|--------------------------------------------------------|(acoustic)
|--------------------------------------------------------|
|--------------------------------------------------------|

|-------------------------------/10--8--7-----/7-----------|
|-------------12-/13--12--10--8------------10-----10--8--7-|
|-/9--11--12-----------------------------------------------| GTR. 2
|----------------------------------------------------------|
|----------------------------------------------------------|
|----------------------------------------------------------|
|       |-sweep-|
|------------12-14-15-14-12-14------15-15--14-14--12-12----|
|--12------12------------------15~----------------------15~|
|--------12------------------------------------------------| GTR. 3
|------14--------------------------------------------------|
|----------------------------------------------------------|
|----------------------------------------------------------|

|--------------------------------------------------------|
|-------------12-/13--12--10--8-/10---12--------10-------| 
|-/9--11--12---------------------------------------------| GTR. 2 
|--------------------------------------------------------|  
|--------------------------------------------------------|
|--------------------------------------------------------|  
|
|-/12---------------------------------------------------------|
|-----12-13----12------------------------------------12-13-15-|
|-----------14----12-14-11-12----------11~~--11-12-14---------| GTR. 3
|-----------------------------14-13-14------------------------|
|-------------------------------------------------------------|
|-------------------------------------------------------------|

|-----------------------------|
|--8----/10-----7-------------|
|-----------------------------| GTR. 2
|-----------------------------|
|-----------------------------|
|-----------------------------|
|
|-----------------------------|
|--13-12----------------------|
|--------14-12-11-------------| GTR. 3
|-----------------14-13-------|
|-------------------------14~-|
|-----------------------------|

|-------------------------------/10--8--7-----/7-----------|
|-------------12-/13--12--10--8------------10-----10--8--7-|
|-/9--11--12-----------------------------------------------| GTR. 2
|----------------------------------------------------------|
|----------------------------------------------------------|
|----------------------------------------------------------|
|       
|----------------------------------------------------------|
|----------------------------------------------------------|
|----------------------------------------------------------| GTR. 3
|----------------------------------------(5)/7-5-5~~~------|
|--12h14~~-------------7-9-10-9~~--------------------------|
|-----------------0----------------------------------------|
|
|-------------------------------har.-----------------------|
|-------------------------------3--------------------------|
|----------------------------------------------------------| GTR. 1
|--------------------------------------------\-------------|
|--------------------------------------------\-slide-------|
|--------------------------------------------\-------------|

   GUITAR SOLO
|----------------------------------------------------------|
|----------------------------------------------------------|
|----------------2------2--------------------8------8------| GTR. 1
|--2------2------2------0------4------4------8------8------|
|--2------2------0------0------4------4------6------6------|
|--0------0--------------------2------2------6------6------|
|
|----------------------------------------------------------|
|----------------------------------------------------------|
|--9~~--------------9-11-12-11~-----12-/14-12-11-12--------| GTR. 2
|----------------------------------------------------------|
|----------------------------------------------------------|
|----------------------------------------------------------|

|----------------------------------------------------------|
|----------------------------------------------------------|
|------------------------------2--------------2------------| GTR. 1
|--2-------------2-------------2--------------2------------|
|--2-------------2-------------0--------------0------------|
|--0-------------0-----------------------------------------|
|
|----------------------------------------------------------|
|----15-13-15-12-13-10-12----17-15-17-13-15-12-13----------|
|--9----------------------11-------------------------------| GTR. 2
|----------------------------------------------------------|
|----------------------------------------------------------|
|----------------------------------------------------------|

|----------------------------------------------------------|
|----------------------------------------------------------|
|------------------------------8---------------8-----------| GTR. 1
|--4-------------4-------------8---------------8-----------|
|--4-------------4-------------6---------------6-----------|
|--2-------------2-------------6---------------6-----------|
|
|----------------------------------------------------------|
|--10"----12"----13"----15"----17"----19"----20"----22"----|
|----------------------------------------------------------| GTR. 2
|----------------------------------------------------------|
|----------------------------------------------------------|
|----------------------------------------------------------|

|----------------------------------------------------------|
|----------------------------------------------------------|
|-------------------------------2--------------2-----------| GTR. 1
|--2------------2---------------2--------------2-----------|
|--2------------2---------------0--------------0-----------|
|--0------------0------------------------------------------|
|
|-----------------------22fb-22fb~-------19---20---22------|
|--22--(22)fbr-20~-----------------------------------------|
|----------------------------------------------------------| GTR. 2
|----------------------------------------------------------|
|----------------------------------------------------------|
|----------------------------------------------------------|

|----------------------------------------------------------|
|----------------------------------------------------------|
|------------------------------8---------------8-----------| GTR. 1
|--4-------------4-------------8---------------8-----------|
|--4-------------4-------------6---------------6-----------|
|--2-------------2-------------6---------------6-----------|
|
|--20~----19h20p19------17-----19-----15-------17-----14---|
|----------------------------------------------------------|
|----------------------------------------------------------| GTR. 2
|----------------------------------------------------------|
|----------------------------------------------------------|
|----------------------------------------------------------|

|----------------------------------------------------------|
|----------------------------------------------------------|
|-------------------------------2--------------2-----------| GTR. 1
|--2------------2---------------2--------------2-----------|
|--2------------2---------------0--------------0-----------|
|--0------------0------------------------------------------|
|
|----------------------------------------------------------|
|----------------------------------------------------------|
|----------------------------------------------------------| GTR. 2
|----------------------------------------------------------|
|----------------------------------------------------------|
|----------------------------------------------------------|

|----------------------------------------------------------|
|----------------------------------------------------------|
|------------------------------8---------------8-----------| GTR. 1
|--4-------------4-------------8---------------8-----------|
|--4-------------4-------------6---------------6-----------|
|--2-------------2-------------6---------------6-----------|
|
|----------------------------------------------------------|
|----------------------------------------------------------|
|----------------------------------------------------------| GTR. 2
|----------------------------------------------------------|
|----------------------------------------------------------|
|----------------------------------------------------------|

   RIFF F
|----------------------------------------------------------|
|----------------------------------------------------------|
|----------------2------2--------------------8------8------|
|--2------2------2------2------4------4------8------8------|
|--2------2------0------0------4------4------6------6------|
|--0------0--------------------2------2------6------6------|

Play RIFF F and fade out
Добавлено: 27.06.2012
Другие материалы по этой песне:

Страница создана 16.03.2012
http://primanota.ru/hypocrisy/request-denied-chords.htm
Привет, Гость.
Предлагаем пройти революционный курс по гитаре.
Подарок от PrimaNota.Ru, забирай!