PrimaNota.ru - самый крупный в мире бесплатный архив песенных текстов, аккордов, табулатур и нот


Hypocrisy - Reborn - текст песни, таба, видео

Регистрация Запомнить меня
Войти через:  Facebook Google Twitter Vk Yandex Mail.ru

Hypocrisy - Reborn - текст песни, таба, видео

Печатать
Просмотров: 163
Hypocrisy-Reborn

note - it isn't perfect, but it's damn close. some of the chords may be wrong. any 
would be nice. enjoy.

Tune Down 2 steps to C

Intro
|---------||
|---------||
|---------||
|---------||
|-7-8-7-5-||
|---------||

Riff 1     Last 2x - under verse, palm mute all but chords
|-----------------|-----------------|-----------------|-----------------||8x
|-----------------|-----------------|-----------------|-----------------||
|-----------------|-----------------|-----------------|-----------------||
|-----------------|-----------------|-----------------|-----2---5---7---||
|-7-7777778-777777|-107777777-8-7-5-|-7-7777778-777777|-10770---3---5---||
|-----------------|-----------------|-----------------|-----------------||

Riff 2
|-----------------|-----------------|--|--|
|-----------------|-----------------|-3x--|
|-----------------|-----------------|--|--|
|-2-------5---7---|-----------------|--|--|
|-0-------3---5---|-7-7777778-777777|--|--|
|-----------------|-----------------|--|--|

|-----------------|-----------------||
|-----------------|-----------------||
|-----------------|-----------------||
|-2-------5---7---|-----------------||
|-0-------3---5---|-2---------------||
|-----------------|-0---------------||

Riff 3
|-----------------|-----------------|-----------------|-----------------|
|-----------------|-----------------|-----------------|-----------------|
|-----------------|-----------------|---------10101010|-9999999977777777|
|---------10101010|-9999999977777777|-----------------|-----------------|
|-77777777--------|-----------------|-77777777--------|-----------------|
|-----------------|-----------------|-----------------|-----------------|

|-----------------|-----------------|-----------------|-----------------||2x
|-----------------|-----------------|-----------------|-----------------||
|-----------------|-----------------|---------10101010|-9999------------||
|---------10101010|-9999999977777777|-----------------|-----2---5---7---||
|-77777777--------|-----------------|-77777777--------|-----0---3---5---||
|-----------------|-----------------|-----------------|-----------------||

Play Riff 1 – 4x (last 2x palm muted)
Play Riff 2
Play Riff 3 – 2x

Riff 4
|-----------------|-----------------|-----------------|-----------------||6x
|-----------------|-----------------|-----------------|-----------------||
|-----------------|-----------------|-----------------|-----------------||
|---------99999999|-9999999999999999|---------99998888|-8888888811--12--||
|-77777777--------|-----------------|-77777777--------|---------9---10--||
|-----------------|-----------------|-----------------|---------9---10--||

Riff 5
|-----------------|-----------------||10x
|-----------------|-----------------||
|-----------------|-----------------||
|-----------------|-----------------||
|-----------------|-----------------||
|-7777777777777777|-8888888855555555||

Riff 6 (probably wrong)
|-----------------|-----------------|-----------------|-----------------|
|-----------------|-----------------|-----------------|-----------------|
|-----------------|-----------------|-----------------|-----------------|
|-1010101010101010|-9999999999999999|-5555555555555555|-7777777777777777|
|-7777777777777777|-6666666666666666|-7777777777777777|-4444444444444444|
|-8888888888888888|-7777777777777777|-0000000000000000|-5555555555555555|

|-----------------|-----------------|-----------------|-----------------||2x
|-----------------|-----------------|-----------------|-----------------||
|-----------------|-----------------|-----------------|-----------------||
|-1010101010101010|-9999999999999999|-5555555555555555|-7777777788888888||
|-7777777777777777|-6666666666666666|-7777777777777777|-4444444455555555||
|-8888888888888888|-7777777777777777|-0000000000000000|-5555555566666666||

Play Riff 1 - 4x

End
|-----||
|-----||
|-----||
|-2---||
|-2---||
|-0---||

question/comment - fraberjam@hotmail.com
Добавлено: 09.04.2012
Другие материалы по этой песне:

Страница создана 03.03.2012
http://primanota.ru/hypocrisy/reborn-chords.htm
Привет, Гость.
Предлагаем пройти революционный курс по гитаре.
Подарок от PrimaNota.Ru, забирай!