PrimaNota.ru - самый крупный в мире бесплатный архив песенных текстов, аккордов, табулатур и нот


Hot Water Music - Difference Engine - текст песни, бас-таба, видео

Регистрация Запомнить меня
Войти через:  Facebook Google Twitter Vk Yandex Mail.ru

Hot Water Music - Difference Engine - текст песни, бас-таба, видео

Печатать
Просмотров: 52
Уроки эстрадного вокала в Санкт-Петербурге
Авторы музыки: Jason Black, George Rebelo, Chuck Ragan, Chris Wollard
Авторы текста: Jason Black, George Rebelo, Chuck Ragan, Chris Wollard
G|---------------------------------|
D|------------------4---2----------|
A|--4-4-4-4-4-4-4----------------2-| x20
E|----------------2---0---0-2-00---|

G|-----------------------------------|
D|-----------------------------------|
A|-------------------------2-2-2-2-4-|
E|-0-0-0-0-0-0-0-0-2-2-2-2-----------|

G|----------------------------------|
D|------------------4---2-----------|
A|--4-4-4-4-4-4-4-----------------2-| x12
E|----------------2---0---0-2-0-2---|

G|-----------------------------------------------------------------|
D|-------------------------------------2---2h4-----2---2h4-----2h4-|
A|-------------------------2-2-2-2-4-4---4-----4-4---4-----4-4-----| x3
E|-0-0-0-0-0-0-0-0-2-2-2-2-----------------------------------------|

G|---------------------------------|
D|---------------------------------|
A|-------------------------2-2-2-2-|
E|-0-0-0-0-0-0-0-0-2-2-2-2---------|

G|----------------------------------------|
D|-6--6--6--6--5-5-5--5-5-5--5-5-5--5-5-5-|
A|-4--4--4--4--4-4-4--4-4-4--4-4-4--4-4-4-|
E|----------------------------------------|

G|----------------------|
D|----------------------|
A|----------------------| x4
E|-0-0-----0-0--2-2-2-2-|

G|-----4*---------------|
D|----------------------|
A|----------------------|
E|-0-0-----0-0--2-2-2-2-|

* = harmonic

G|----------------------|
D|----------------------|
A|----------------------| x3
E|-0-0-----0-0--2-2-2-2-|

G|-----|
D|-----|
A|-----|
E|-0-0-|

Guitar on It's own

G|----------------------------------|
D|------------------4---2-----------|
A|--4-4-4-4-4-4-4-----------------2-| x8
E|----------------2---0---0-2-0-2---|
Добавлено: 17.04.2016
Другие материалы по этой песне:
  • Аккорды и текст

Страница создана 10.06.2012
http://primanota.ru/hot-water-music/difference-engine-chords.htm
Привет, Гость.
Предлагаем пройти революционный курс по гитаре.
Подарок от PrimaNota.Ru, забирай!