PrimaNota.ru - самый крупный в мире бесплатный архив песенных текстов, аккордов, табулатур и нот


Hot Water Music - Incisions - текст песни, бас-таба, видео

Регистрация Запомнить меня
Войти через:  Facebook Google Twitter Vk Yandex Mail.ru

Hot Water Music - Incisions - текст песни, бас-таба, видео

Печатать
Просмотров: 39
Авторы музыки: Jason Black, George Rebelo, Chuck Ragan, Chris Wollard
Авторы текста: Jason Black, George Rebelo, Chuck Ragan, Chris Wollard
HOT WATER MUSIC - INCISIONS

G|---------------------------------------------------------------------|
D|---------------------------------------------------------------------|
A|-2222222222222222----------------------------------------------------|
E|------------------4444444444444444-2222222222222222-0000000000000000-|

G|----------------------------------------------------------------------------------|
D|----------------------------------------------------------------------------------|
A|-2222222222222222---------------------------------------7---6-7---9---7---6h7p6---|
E|------------------4444444444444444-2222222222222222-0-0---0-----0---0---0-------7-|

Just guitar for one bar

G|---------------------------------------------------------------------|
D|---------------------------------------------------------------------|
A|-2222222222222222----------------------------------------------------|
E|------------------4444444444444444-2222222222222222-0000000000000000-|

G|----------------------------------------------------------------------------|
D|----------------------------------------------------------------------------|
A|-2-22222222222-4-0-00000000000-2--------------6h7----66-77-66-99-77-6h7p6---|
E|---------------------------------0-0000000000-----77----------------------7-|

G|--------------------------------------------------------------------------------|
D|--------------------------------------------------------------------------------|
A|-2-2222222222222-4-00000000000000-2-77777777-99-77-6h7p6----6----6-7-99-777-6---|
E|---------------------------------------------------------77---77--------------7-|

G|------------------------------------------------------------------------------------------------------|
D|-------------------------------------------------2-2-2-1h2p1-1-1-1-1-1-1------------------------------|
A|-----------------------------2-2-2-2-2-1-1-1-1-1-----------------------------1---1-2--4--2--1-1h2p1---|
E|-4-4-4-2-4-2-0-0-0-0-0-0-2-4---------------------------------------------2-2---2--------------------2-|

G|-------------------------------------------------------------------------------------------------------|
D|-------------------------------------------------2-2-2-1h2p1-1-1-1-1-1-1-------------------------------|
A|-----------------------------2-2-2-2-2-1-1-1-1-1-----------------------------1---1h2p1-4-4-4-4-2-2-2-2-|
E|-4-4-4-2-4-2-0-0-0-0-0-0-2-4---------------------------------------------2-2---2-----------------------|

G|---------------------------------------------------------------------|
D|---------------------------------------------------------------------|
A|-2222222222222222----------------------------------------------------| x2
E|------------------4444444444444444-2222222222222222-0000000000000000-|

G|----------------------------------------------------------------------------|
D|----------------------------------------------------------------------------|
A|-2-22222222222-4-0-00000000000-2--------------6h7----66-77-66-99-77-6h7p6---|
E|---------------------------------0-0000000000-----77----------------------7-|

G|----------------------------------------------------------------------------------|
D|----------------------------------------------------------------------------------|
A|-2-2222222222222-4-00000000000000-2-77777777-99-77-6h7p6----6----6-7-9-(ring out)-|
E|---------------------------------------------------------77---77------------------|

G|------------------------------------------------------------------------------------------------------|
D|-------------------------------------------------2-2-2-1h2p1-1-1-1-1-1-1------------------------------|
A|-----------------------------2-2-2-2-2-1-1-1-1-1-----------------------------1---1-2--4--2--1-1h2p1---|
E|-4-4-4-2-4-2-0-0-0-0-0-0-2-4---------------------------------------------2-2---2--------------------2-|

G|---------------------------------------------------------------------------------------------------------|
D|-------------------------------------------------2-2-2-1h2p1-1-1-1-1-1-1-----1---1h2p1---4-4-2-2-1h2p1---|
A|-----------------------------2-2-2-2-2-1-1-1-1-1---------------------------------------2---------------2-|
E|-4-4-4-2-4-2-0-0-0-0-0-0-2-4---------------------------------------------2-2---2-------------------------|

G|---------------------------------------------------------------------------------------------------------|
D|-------------------------------------------------2-2-2-1h2p1-1-1-1-1-1-1---------------------------------|
A|-----------------------------2-2-2-2-2-1-1-1-1-1---------------------------------------------------------|
E|-4-4-4-2-4-2-0-0-0-0-0-0-2-4---------------------------------------------2-2-2-2-2-2-2-2-2-2-2-2-2-2-2-2-|

G|-------------------------------------------------------------------------------------------------------|
D|-------------------------------------------------2-2-2-1h2p1-1-1-1-1-1-1-------------------------------|
A|-----------------------------2-2-2-2-2-1-1-1-1-1-----------------------------1---1h2p1-4-4-4-4-2-2-2-2-|
E|-4-4-4-2-4-2-0-0-0-0-0-0-2-4---------------------------------------------2-2---2-----------------------|

G|--------------------------------------------------------------------|
D|--------------------------------------------------------------------|
A|--------------------------------------------------------------------| x2
E|-777777777777777-66666666666666666-44444444444444444-66666666666666-|

G|-----11-11-11-9-8-8h9p8--------11-11-11-9-8-8h9p8-------11-11-11-9-8-8h9p8-------11-11-11-9-8-8h9p8----|
D|------------------------11------------------------9------------------------9------------------------11-|
A|---------------------------777-------------------------------------------------------------------------| x2
E|-777------------------------------------------------444----------------------666-----------------------|

Guitar on It's own for a bit

G|-------------------------------------------------------|
D|-------------------------------------------------------|
A|-------------------------------------------------------|
E|-4-4-4-4-4-0-0-0-0-0-2-2-2-2-2-2-2-2-2-2-2-2-2-2-2-2-2-|

G|------------------------------------------------------------------------------------------|
D|------------------------------------------------------------------------------------------|
A|-22222222222222222-------------------------------------------1---1h2p1---1---1h2p1---1h2--| x2
E|-------------------00000000000000000-4-4-4-4-4-0-0-0-0-0-2-2---2-------2---2-------2------|

G|-----------------------------------------------------------------------------|
D|-----------------------------------------------------------------------------|
A|-22222222222222222-----------------------------------------------------------|
E|-------------------00000000000000000-4-4-4-4-4-0-0-0-0-0-2-2-2-2-2-2-2-2-2-2-|

G|-------------------------------------------------------------------6666-3-6-4-|
D|---------------------------------------------------------444444444------------|
A|-2222222222222222-------------------------------------------------------------|
E|------------------000000000000000000-4-4-4-4-4-0-0-0-0-0----------------------|

G|------------------------------------------------------------------------------------------|
D|------------------------------------------------------------------------------------------|
A|-22222222222222222-------------------------------------------1---1h2p1---1---1h2p1---1h2--| 
E|-------------------00000000000000000-4-4-4-4-4-0-0-0-0-0-2-2---2-------2---2-------2------|

G|--------------|
D|--------------|
A|-2-(Ring out)-|
E|--------------|
Добавлено: 17.04.2016
Другие материалы по этой песне:
  • Аккорды и текст

Страница создана 11.07.2012
http://primanota.ru/hot-water-music/incisions-chords.htm
Привет, Гость.
Предлагаем пройти революционный курс по гитаре.
Подарок от PrimaNota.Ru, забирай!