PrimaNota.ru - самый крупный в мире бесплатный архив песенных текстов, аккордов, табулатур и нот


Hot Water Music - Jet Set Ready - текст песни, бас-таба, видео

Регистрация Запомнить меня
Войти через:  Facebook Google Twitter Vk Yandex Mail.ru

Hot Water Music - Jet Set Ready - текст песни, бас-таба, видео

Печатать
Просмотров: 60
Авторы музыки: Jason Black, George Rebelo, Chuck Ragan, Chris Wollard
Авторы текста: Jason Black, George Rebelo, Chuck Ragan, Chris Wollard
-------------------------------------------------------------------------------
                             Hot Water Music - Jet Set Ready
-------------------------------------------------------------------------------

Tuning: Standard

Intro

G|------------------------------------------|
D|--------------------------4-5-7-5-4-4h5p4-|
A|------------------------------------------|
E|-2/10\0~----------0~----------------------|

Verse x4

G|-----------------------------------------------------|
D|-2-2--2-2--0-----------------------------------------|
A|-------------2--2-2--0-2------------5-5--0-0--0-2-0--|
E|-------------------------5\3-3--3-3------------------|

G|-----------------------------------------------------|
D|-2-2--2-2--0----------------------------------4h54---|
A|-------------2--2-2--0-2------------5-5--0-0---------|
E|-------------------------5\3-3--3-3------------------|

Pre-Chorus

G|-----------------------------------------------------------------|
D|-----------------4-4-4-2-2-2-0-0-----------------4-4-4-2-2-2-2-2-|
A|-2-2-2-2-2-2-2-2-------------------------------------------------|
E|---------------------------------3-3-3-3-3-3-3-3-----------------|

G|-----------------------------------------------------------------|
D|-5-5-5-4-4-4-0-0-----------------5-5-5-4-4-4-5-5-7-7-7-7-7-7-7-7-|
A|-----------------------5-5-5-5-5---------------------------------|
E|-----------------3-3-3-------------------------------------------|

Chorus

G|-----------------------------------------------------------------|
D|---------------------------------------------------------5p4-----|
A|-5-5-5-5-5-5-5-5---------0-0-2-2-3-3-3-3-3-3-3-3-3-3-5-5-----5-5-|
E|-----------------2-2-3-3-----------------------------------------|

G|-----------------------------------------------------------------|
D|-5-5-5-4-4-4-0-0-----------------5-5-5-4-4-4-5-5-7-7-7-7-7-7-7-7-|
A|-----------------------5-5-5-5-5---------------------------------|
E|-----------------3-3-3-------------------------------------------|

G|-----------------------------------------------------------------|
D|---------------------------------------------------------5p4-----|
A|-5-5-5-5-5-5-5-5---------0-0-2-2-3-3-3-3-3-3-3-3-3-3-5-5-----5-5-|
E|-----------------2-2-3-3-----------------------------------------|


G|-----------------------------------------------------------------|
D|-5-5-5-4-4-4-0-0-----------------5-5-5-4-4-4-0-0-----------------|
A|-----------------------5-5-5-5-5-----------------------5-5-5-----|
E|-----------------3-3-3---------------------------3-3-3-------3p2-|

Interlude

G|-----------------------------------------------------------------|
D|-----------------------------------------------------------------|
A|---------------0-0-2-2-2-2-2-2-2-------------2-2-0-0-0-0-2-0-----|
E|-0-0-0-0-0-0-3-------------------3-3-3-3-3-3-----------------3-2-|

G|----------------------------------------------------------------|
D|---------------------------------------------------------4h54-0-|
A|---------------0-0-2-2-2-2-2-2-2-------------2-2-0-0-0-0--------|
E|-0-0-0-0-0-0-3-------------------3-3-3-3-3-3--------------------|

Verse

G|-----------------------------------------------------------------|
D|-----------------------------------------------------------------|
A|---------------0-0-2-2-2-2-2-2-2-------------2-2-2-0-0-0-2-0-----|
E|-0-0-0-0-0-0-3-------------------3-3-3-3-3-3-----------------3-2-|

G|----------------------------------------------------------------|
D|---------------------------------------------------------4h54-0-|
A|---------------0-0-2-2-2-2-2-2-2-------------2-2-2-0-0-0--------|
E|-0-0-0-0-0-0-3-------------------3-3-3-3-3-3--------------------|

G|-----------------------------------------------------------------|
D|-----------------------------------------------------------------|
A|---------------0-0-2-2-2-2-2-2-2-------------2-2-2-0-0-0-2-0-----|
E|-0-0-0-0-0-0-3-------------------3-3-3-3-3-3-----------------3-2-|

G|-----------------------------------------------------------|
D|-----------------------------------------------------------|
A|---------------0-0-2-2-2-2-2-2-2---------------------------|
E|-0-0-0-0-0-0-3-------------------3-3--3-3--3-3--5-5--5-5-5-|

Pre-Chorus

G|-----------------------------------------------------------------|
D|-----------------4-4-4-2-2-2-0-0-----------------4-4-4-2-2-2-0-0-|
A|-2-2-2-2-2-2-2-2-------------------------------------------------|
E|---------------------------------3-3-3-3-3-3-3-3-----------------|

G|-----------------------------------------------------------------|
D|-5-5-5-4-4-4-0-0-----------------5-5-5-4-4-4-5-5-7-7-7-7-7-7-7-7-|
A|-----------------------5-5-5-5-5---------------------------------|
E|-----------------3-3-3-------------------------------------------|

Chorus

G|-----------------------------------------------------------------|
D|---------------------------------------------------------5p4-----|
A|-5-5-5-5-5-5-5-5---------0-0-2-2-3-3-3-3-3-3-3-3-3-3-5-5-----5-5-|
E|-----------------2-2-3-3-----------------------------------------|

G|-----------------------------------------------------------------|
D|-5-5-5-4-4-4-0-0-----------------5-5-5-4-4-4-5-5-7-7-7-7-7-7-7-7-|
A|-----------------------5-5-5-5-5---------------------------------|
E|-----------------3-3-3-------------------------------------------|

G|-----------------------------------------------------------------|
D|---------------------------------------------------------5p4-----|
A|-5-5-5-5-5-5-5-5---------0-0-2-2-3-3-3-3-3-3-3-3-3-3-5-5-----5-5-|
E|-----------------2-2-3-3-----------------------------------------|

G|-----------------------------------------------------------------|
D|-5-5-5-4-4-4-0-0-----------------5-5-5-4-4-4-5-5-7-7-7-7-7-7-7-7-|
A|-----------------------5-5-5-5-5---------------------------------|
E|-----------------3-3-3-------------------------------------------|

G|------7p5------7p5------7p5------7p5---------7p5---------7p5---------7p5--------7p5-|
D|-0-0-0---0-0-0----0-0-0----0-0-0----10-10-10----10-10-10----10-10-10----10-10-10----|
A|------------------------------------------------------------------------------------|
E|------------------------------------------------------------------------------------|

G|-----------------------------------------------------------------|
D|-5-5-5-4-4-4-0-0-----------------5-5-5-4-4-4-5-5-7-7-7-7-7-7-7-7-|
A|-----------------------5-5-5-5-5---------------------------------|
E|-----------------3-3-3-------------------------------------------|

G|------7p5------7p5------7p5------7p5---------7p5---------7p5---------7p5--------7p5-|
D|-0-0-0---0-0-0----0-0-0----0-0-0----10-10-10----10-10-10----10-10-10----10-10-10----|
A|------------------------------------------------------------------------------------|
E|------------------------------------------------------------------------------------|

G|-----------------------------------------------------------------|
D|-5-5-5-4-4-4-0-0-----------------5-5-5-4-4-4-0-0-----------------|
A|-----------------------5-5-5-5-5-----------------------5-5-5-5-5-|
E|-----------------3-3-3---------------------------3-3-3-----------|

G|-----------------------------------------------------------------|
D|-5-5-5-4-4-4-0-0-----------------5-5-5-4-4-4-0-0-----------------|
A|-----------------------5-5-5-5-5-----------------------5-5-5-0-2-|
E|-----------------3-3-3---------------------------3-3-3-----------|

G|----------|
D|-0~-------|
A|----------|
E|----------|

| /  slide up
| \  slide down
| h  hammer-on
| p  pull-off
===============================================================================         
Добавлено: 06.09.2015
Другие материалы по этой песне:
  • Аккорды и текст

Страница создана 02.05.2012
http://primanota.ru/hot-water-music/jet-set-ready-chords.htm
Привет, Гость.
Предлагаем пройти революционный курс по гитаре.
Подарок от PrimaNota.Ru, забирай!