PrimaNota.ru - самый крупный в мире бесплатный архив песенных текстов, аккордов, табулатур и нот


Hot Water Music - Minno - текст песни, бас-таба, видео

Регистрация Запомнить меня
Войти через:  Facebook Google Twitter Vk Yandex Mail.ru

Hot Water Music - Minno - текст песни, бас-таба, видео

Печатать
Просмотров: 92
Авторы музыки: Jason Black, George Rebelo, Chuck Ragan, Chris Wollard
Авторы текста: Jason Black, George Rebelo, Chuck Ragan, Chris Wollard
-------------------------------------------------------------------------------
                             Hot Water Music - Minno
-------------------------------------------------------------------------------

Tuning: Standard

Intro

G|---------4-----------4--4h6-4-----------------------------------------------------------|
D|-2---4-------2---4--------------2---4---------------------------------------------------|
A|--------------------------------------------0---2-2-2-2-2-2-2-2-2-2-2-2-2-2-2-2-4-4-4-4-|
E|----------------------------------------4-----------------------------------------------|

G|---------------------------------------------------------------------|
D|-2--1-------------2--1-1h2-----------2--1--------------------------1-|
A|-------0-00--0-00----------0-0-00-0--------4-4-44-4-2-2-22-2-202420--| x2
E|---------------------------------------------------------------------|


Verse

G|---------------------------------------------------------------------|
D|-2--1-------------2--1-1h2-----------2--4--------------------------1-|
A|-------0-00--0-00----------0-0-00-0------------0-0-2-2-2--22-202420--| x3
E|-------------------------------------------4-4-----------------------|

G|---------------------------------------------------------------------|
D|-2--1-------------2--1-1h2-----------2--1--------------------------1-|
A|-------0-00--0-00----------0-0-00-0--------4-4-44-4-2-2-22-2-202420--| x2
E|---------------------------------------------------------------------|

Chorus

G|-------------------|-----------|
D|-------------------|-----------|
A|-------4-x16-0-x14-|-0-x10-2-x6|
E|-0-x16-------------|-----------|

G|-------------------|-----------------|
D|-------------------|---------------1-|
A|-------4-x16-0-x14-|-0~------202420--|
E|-0-x16-------------|-----------------|

Verse

G|---------------------------------------------------------------------|
D|-2--1-------------2--1-1h2-----------2--4--------------------------1-|
A|-------0-00--0-00----------0-0-00-0------------0-0-2-2-2--22-202420--| x5
E|-------------------------------------------4-4-----------------------|

Outro

G|----------------------------------------------------|
D|--------------------4-4-4-2-2-2-1-1-1---------------|
A|-------0-x16--2-x16-------------------4-4-4-2-2-0-0-| x3
E|-2-x16----------------------------------------------|

G|---------------------------------------------------------|
D|---------------------------------------------------------|
A|-------0-x16------------------------2-2-2-2-2--0-0--0-0--|
E|-2-x16--------0-0-0-0-0--0-0-0-0-0-----------------------|

G|---------------------------------------------------------|
D|---------------------------------------------------------|
A|-----------------------2-2-2-2-2--0-0--0-0~--------------|
E|-0-0-0-0-0--0-0-0-0-0------------------------------------|

| h  hammer-on
===============================================================================
Добавлено: 06.09.2015
Другие материалы по этой песне:
  • Аккорды и текст

Страница создана 20.03.2012
http://primanota.ru/hot-water-music/minno-chords.htm
Привет, Гость.
Предлагаем пройти революционный курс по гитаре.
Подарок от PrimaNota.Ru, забирай!