PrimaNota.ru - самый крупный в мире бесплатный архив песенных текстов, аккордов, табулатур и нот


Haste The Day - An Adult Tree - таба, видео

Регистрация Запомнить меня
Войти через:  Facebook Google Twitter Vk Yandex Mail.ru

Haste The Day - An Adult Tree - таба, видео

Печатать
Просмотров: 112
Drop C (C G C F A D)

Artist: Haste The Day
Album: Dreamer
Song: An Adult Tree [5:10]

 _______________________________
| T-10  W-12  O-14<=O not 0     |
| E-11  H-13  F-15              |
|PM-Palm Mute     AP-Alt Picking|
|/-Slide Up         \-Slide Down|
|^-Bend             ^^-Full Bend|
|_______________________________|

Intro [0:00 - 0:27]

In the intro they might be playing both guitars on different notes. This is at least 
what I could hear but i think there is more.

[0:03]
D|-----------------------------------|-----------------------------------|
A|-----------------------------------|-----------------------------------|
F|-----------------------------------|-----------------------------------|
C|-----------------------------------|-----------------------------------|
G|--7-7-7-8-8-8-8-8-8-8-8-8-8-8-8-8--|--7-7-7-8-8-8-8-8-8-8-8-8-8-8-8-8--|
C|-----------------------------------|-----------------------------------|

[0:10]
D|-----------------------------------|-----------------------------------|
A|-----------------------------------|-----------------------------------|
F|-----------------------------------|-----------------------------------|
C|-----------------------------------|-----------------------------------|
G|--T-T-T-W-W-W-W-W-W-W-W-W-W-W-W-W--|--W-W-W-W-W-W-W-W-T-T-T-T-T-T-T-T--|
C|-----------------------------------|-----------------------------------|

[0:18]
D|-----------------------------------|-----------------------------------|
A|-----------------------------------|-----------------------------------|
F|-----------------------------------|-----------------------------------|
C|-----------------------------------|-----------------------------------|
G|--7-7-7-8-8-8-8-8-8-8-8-8-8-8-8-8--|--7-7-7-8-8-8-8-8-8-8-8-8-8-8-8-8--|
C|-----------------------------------|-----------------------------------|

[0:24]
D|-----------------------------------|
A|-----------------------------------|
F|-----------------------------------|
C|-----------------------------------|
G|--T-T-T-W-W-W-W-W-W-W-W-W-W-W-W-W--|
C|-----------------------------------|

Verse 1 [0:27 - 1:01]

[0:27]
D|-----------------------------------|
A|-----------------------------------|
F|-----------------------------------|
C|--2-2-2-2-2-2-2-2-0-0-0-0-0-0-0-0--|
G|--2-2-2-2-2-2-2-2-0-0-0-0-0-0-0-0--|
C|--2-2-2-2-2-2-2-2-0-0-0-0-0-0-0-0--|

[0:32]
D|-----------------------------------|-----------------------------------|
A|-----------------------------------|-----------------------------------|
F|--9-9-9/T-T-T-T-T-T-T-T-T-T-T-T-T--|--9-9-9/T-T-T-T-T-T-T-T-T-T-T-T-T--|
C|--x-x-x-x-x-x-x-x-x-x-x-x-x-x-x-x--|--x-x-x-x-x-x-x-x-x-x-x-x-x-x-x-x--|
G|--7-7-7/8-8-8-8-8-8-8-8-8-8-8-8-8--|--7-7-7/8-8-8-8-8-8-8-8-8-8-8-8-8--|
C|-----------------------------------|-----------------------------------|

[0:39]
D|-----------------------------------|-----------------------------------|
A|-----------------------------------|-----------------------------------|
F|--W-W-W/O-O-O-O-O-O-O-O-O-O-O-O-O--|--9-9-9-9-9-9-9-9\6-6-6-6-6-6-6-6--|
C|--x-x-x-x-x-x-x-x-x-x-x-x-x-x-x-x--|--x-x-x-x-x-x-x-x-x-x-x-x-x-x-x-x--|
G|--T-T-T/W-W-W-W-W-W-W-W-W-W-W-W-W--|--7-7-7-7-7-7-7-7\4-4-4-4-4-4-4-4--|
C|-----------------------------------|-----------------------------------|

[0:46]
D|-----------------------------------|-----------------------------------|
A|-----------------------------------|-----------------------------------|
F|--9-9-9/T-T-T-T-T-T-T-T-T-T-T-T-T--|--9-9-9/T-T-T-T-T-T-T-T-T-T-T-T-T--|
C|--x-x-x-x-x-x-x-x-x-x-x-x-x-x-x-x--|--x-x-x-x-x-x-x-x-x-x-x-x-x-x-x-x--|
G|--7-7-7/8-8-8-8-8-8-8-8-8-8-8-8-8--|--7-7-7/8-8-8-8-8-8-8-8-8-8-8-8-8--|
C|-----------------------------------|-----------------------------------|

[0:53]
D|-----------------------------------|-----------------------------------|
A|-----------------------------------|-----------------------------------|
F|--W-W-W/O-O-O-O-O-O-O-O-O-O-O-O-O--|--9-9-9-9-9-9-9-9\6-6-6-6-6-6-6-6--|
C|--x-x-x-x-x-x-x-x-x-x-x-x-x-x-x-x--|--x-x-x-x-x-x-x-x-x-x-x-x-x-x-x-x--|
G|--T-T-T/W-W-W-W-W-W-W-W-W-W-W-W-W--|--7-7-7-7-7-7-7-7\4-4-4-4-4-4-4-4--|
C|-----------------------------------|-----------------------------------|

Chorus 1 [1:02 - 1:32]

[1:02]
D|-----------------------------------|-----------------------------------|
A|-----------------------------------|-----------------------------------|
F|--O-O-O-O-O-O-O-O\W-W-W-W/F-F-F-F--|--O-O-O-O-O-O-O-O\W-W-W-W/F-F-F-F--|
C|--x-x-x-x-x-x-x-x-x-x-x-x-x-x-x-x--|--x-x-x-x-x-x-x-x-x-x-x-x-x-x-x-x--|
G|--W-W-W-W-W-W-W-W\T-T-T-T/H-H-H-H--|--W-W-W-W-W-W-W-W\T-T-T-T/H-H-H-H--|
C|-----------------------------------|-----------------------------------|

[1:11]
D|-----------------------------------|-----------------------------------|
A|-----------------------------------|-----------------------------------|
F|--O-O-O-O-O-O-O-O\W-W-W-W/F-F-F-F--|--O-O-O-O-O-O-O-O\W-W-W-W-W-W-W-W--|
C|--x-x-x-x-x-x-x-x-x-x-x-x-x-x-x-x--|--x-x-x-x-x-x-x-x-x-x-x-x-x-x-x-x--|
G|--W-W-W-W-W-W-W-W\T-T-T-T/H-H-H-H--|--W-W-W-W-W-W-W-W\T-T-T-T-T-T-T-T--|
C|-----------------------------------|-----------------------------------|

[1:25]
D|-----------------------------------|-----------------------------------|
A|-----------------------------------|-----------------------------------|
F|--O-O-O-O-O-O-O-O\W-W-W-W/F-F-F-F--|--O-O-O-O-O-O-O-O\W-W-W-W/F-F-F-F--|
C|--x-x-x-x-x-x-x-x-x-x-x-x-x-x-x-x--|--x-x-x-x-x-x-x-x-x-x-x-x-x-x-x-x--|
G|--W-W-W-W-W-W-W-W\T-T-T-T/H-H-H-H--|--W-W-W-W-W-W-W-W\T-T-T-T/H-H-H-H--|
C|-----------------------------------|-----------------------------------|

[1:11]
D|-----------------------------------|-----------------------------------|
A|-----------------------------------|-----------------------------------|
F|--O-O-O-O-O-O-O-O\W-W-W-W/F-F-F-F--|--O-O-O-O-O-O-O-O\W-W-W-W-W-W-W-W--|
C|--x-x-x-x-x-x-x-x-x-x-x-x-x-x-x-x--|--x-x-x-x-x-x-x-x-x-x-x-x-x-x-x-x--|
G|--W-W-W-W-W-W-W-W\T-T-T-T/H-H-H-H--|--W-W-W-W-W-W-W-W\T-T-T-T-T-T-T-T--|
C|-----------------------------------|-----------------------------------|

Interlude? [1:32 - 1:53)

Lead

[1:32]
D|-----------------------------------|
A|--8^^(x16)-8-T-8-T-8-H-F-----------|
F|-----------------------------------|
C|-----------------------------------|
G|-----------------------------------|
C|-----------------------------------|

^^^This isn't quite right, I listened to the acoustic version^^^

Rythm

[1:32]
D|-----------------------------------|-------------------------------------|
A|-----------------------------------|-------------------------------------|
F|-----------------------------------|-------------------------------------|
C|--8-------7-------0-------3333-7777|-------------------------------------|
G|--8-(x16)-7-(x16)-0-(x16)-3333-7777|-------------------------------------|
C|--8-------7-------0-------3333-7777|-------------------------------------|

^^^Not 100% sure on this but it works and is typical Haste The Day^^^

***INCOMPLETE. PLEASE FEEL FREE TO WORK ON IT MORE***
Добавлено: 27.02.2012
Другие материалы по этой песне:
  • Аккорды и текст

Страница создана 27.02.2012
http://primanota.ru/haste-the-day/an-adult-tree-chords.htm
Привет, Гость.
Предлагаем пройти революционный курс по гитаре.
Подарок от PrimaNota.Ru, забирай!