PrimaNota.ru - самый крупный в мире бесплатный архив песенных текстов, аккордов, табулатур и нот


Haste The Day - O Come Emmanuel - таба, видео

Регистрация Запомнить меня
Войти через:  Facebook Google Twitter Vk Yandex Mail.ru

Haste The Day - O Come Emmanuel - таба, видео

Печатать
Просмотров: 136
-------------------------------------------------------------------------------
                      O' Come Emanuel - Haste the day
-------------------------------------------------------------------------------
Tabbed by:Eric Ensing
Email:ensinseric@hotmail.com

Tuning:standard

h=hammer on 
so this is the main riff through out the song, ill add the other bits once I figure them out.

e|---------------------------------------------------------------------------|
B|-----0-------------------0--------------0------------------0---------------|
G|---0--0-0-----0---0----0--0-0---------0--0-0-----0---0---0--0-0------------|
D|--2-2--2-----0---0-4--4-4--4---------4-4--4-----4---4---2-2--2-------------|
A|---------------------3--------------0--------0h2---------------------------|
E|-0--------0h2---3----------------------------------3---0-------------------|
Добавлено: 30.06.2012
Другие материалы по этой песне:
  • Аккорды и текст

Страница создана 24.02.2012
http://primanota.ru/haste-the-day/o-come-emmanuel-chords.htm
Привет, Гость.
Предлагаем пройти революционный курс по гитаре.
Подарок от PrimaNota.Ru, забирай!