PrimaNota.ru - самый крупный в мире бесплатный архив песенных текстов, аккордов, табулатур и нот


Haste The Day - Perfect Night - текст песни, таба, видео

Регистрация Запомнить меня
Войти через:  Facebook Google Twitter Vk Yandex Mail.ru

Haste The Day - Perfect Night - текст песни, таба, видео

Печатать
Просмотров: 122
Уроки эстрадного вокала в Санкт-Петербурге
Haste The Day
When Everything Falls
Perfect Night


Tuned Drop C
(C, G, C, F, A, d)

For some reason no one has tabbed this song and its been out for 4 years now. So I took 
liberty of doing so.
Its actually my first tab to be posted so go easy but it should be 95% correct. If you 
the other 5% let me
know. Enjoy.

This song is played by two guitars but could easily be harmonized on one minus a few riffs.

Dedicated To Haylee P. Harper


INTRO

Gtr I & Gtr II

d |--------|--------|--------|--------|
a |--------|--------|--------|--------|
f |--------|--------|--------|--------|
c |7~------|--(7)---|--(7)---|--(7)---|
g |8~------|--(8)---|--(8)---|--(8)---|
c |0-------|--(0)---|--(0)---|--(0)---|

Gtr I & Gtr II

   q  e e sse sse  q  e e sse sse  q  e e sse sse  q   q   q   q
d |---------------|---------------|---------------|----------------|
a |---------------|---------------|---------------|----------------|
f |---------------|---------------|---------------|----------------|
c |7~-------------|7~-------------|7~-------------|12--12--10--12--|
g |8~-------------|8~-------------|8~-------------|13--13--12--13--|
c |0--0-0-000-000-|0--0-0-000-000-|0--0-0-000-000-|----------------|
      . . ... ...     . . ... ...     . . ... ...

Verse

Gtr I & Gtr II

   q  e e sse sse  q  e e sse sse  q  e e sse sse  q   q   q   q
d |---------------|---------------|---------------|----------------|
a |---------------|---------------|---------------|----------------|
f |---------------|---------------|---------------|----------------|
c |7~-------------|7~-------------|7~-------------|12--12--10--12--|
g |8~-------------|8~-------------|8~-------------|13--13--12--13--|
c |0--0-0-000-000-|0--0-0-000-000-|0--0-0-000-000-|----------------|
      . . ... ...     . . ... ...     . . ... ...

Gtr I & Gtr II

   q  e e sse sse  q  e e sse sse  q  e e sse sse  q  e e q   q
d |---------------|---------------|---------------|---------------|
a |---------------|---------------|---------------|---------------|
f |---------------|---------------|---------------|---------------|
c |7~-------------|7~-------------|8--------------|5------8---3---|
g |8~-------------|8~-------------|8--------------|5------8---3---|
c |0--0-0-000-000-|0--0-0-000-000-|8--8-8-888-888-|5--5-5-8---3---|
      . . ... ...     . . ... ...     . . ... ...


   q  e e sse sse  q  e e sse sse  q  e e sse sse  q   q   q   q
d |---------------|---------------|---------------|----------------|
a |---------------|---------------|---------------|----------------|
f |---------------|---------------|---------------|----------------|
c |7~-------------|7~-------------|7~-------------|12--12--10--12--|
g |8~-------------|8~-------------|8~-------------|13--13--12--13--|
c |0--0-0-000-000-|0--0-0-000-000-|0--0-0-000-000-|----------------|
      . . ... ...     . . ... ...     . . ... ...


Gtr I & Gtr II

   q  e e sse sse  q  e e sse sse  q  e e sse sse  q  e e q   q
d |---------------|---------------|---------------|---------------|
a |---------------|---------------|---------------|---------------|
f |---------------|---------------|---------------|---------------|
c |7~-------------|7~-------------|5--------------|3------5---5---|
g |8~-------------|8~-------------|5--------------|3------5---5---|
c |0--0-0-000-000-|0--0-0-000-000-|5--5-5-555-555-|3--3-3-5---5---|
      . . ... ...     . . ... ...     . . ... ...

Pre-Chrous I


Gtr I & Gtr II

   e e e e q  e e  e   q  e e e e e  e   e e e q  e  e e   q  e h
d |---------------|-----------------|-----------------|---------------|
a |---------------|-----------------|-----------------|---------------|
f |---------------|-----------------|-----------------|---------2*----|
c |---------------|-----------------|-----------------|---------4*----|
g |0--------------|---------------0-|(0)--------------|---------------|
c |0-8-7-5-3--5-6-|(6)-5--3-1-3-1-0-|(0)-8-7-5-3--5-6-|(6)-5--3-------|
                       .  . . . .                          .  .
(*=artificial harmonic)

Gtr I & Gtr II

   e e e e q  e e  e   q  e e e e e  e   e e e q  e  e e   q  e h
d |---------------|-----------------|-----------------|---------------|
a |---------------|-----------------|-----------------|---------------|
f |---------------|-----------------|-----------------|---------5*----|
c |---------------|-----------------|-----------------|---------7*----|
g |0--------------|---------------0-|(0)--------------|---------------|
c |0-8-7-5-3--5-6-|(6)-5--3-1-3-1-0-|(0)-8-7-5-3--5-6-|(6)-5--3-------|
                       .  . . . .                          .  .

Gtr I & II

   q  e e e e e e  e e e e e e q   q  e e e e e e  e e e e e e  q
d |---------------|---------------|---------------|-----------------|
f |---------------|---------------|---------------|-----------------|
a |---------------|---------------|---------------|-----------------|
c |---------------|----------7-5--|3--------------|----------12-10--|
g |0------------0-|------0---8-7--|5------------0-|------0---13-12--|
c |0--0-0-0-0-0-0-|0-0-0-0-0------|0--0-0-0-0-0-0-|0-0-0-0-0--------|
      . . . . .    . . .   .          . . . . .    . . .   .


Gtr I & II

   q  e e e e e e  e e e e e e q   q  e e q  e e  q  e e q  e e
d |---------------|---------------|--------------|--------------|
f |---------------|---------------|--------------|--------------|
a |---------------|---------------|--------------|--------------|
c |7--------------|----------7-5--|2------2------|0------2--2-2-|
g |8------------0-|------0---8-7--|3------3------|1------3--3-3-|
c |0--0-0-0-0-0-0-|0-0-0-0-0------|---0-0----0-0-|---0-0--------|
      . . . . .    . . .   .          . .    . .     . .


Chorus (2x)

    Gtr I
   q  q   e  e  q    q.   q   e e  e  q  q   e  e  q    q.   q   e e  e
d |-----------------|----------------|-----------------|-----------------|
f |-----------------|----------------|-----------------|-----------------|
a |---14--14\12\10--|12---10--9/10\7-|---14--14\12\10--|12---10--9/10\7--|
c |-----------------|----------------|-----------------|-----------------|
g |0--12--12\10\8---|10---8---7/8-\5-|0--12--12\10\8---|10---8---7/8-\5--|
c |0----------------|----------------|0----------------|-----------------|
  |
  | Gtr II
  |q  q  e e q   q  e q  e q   q  q  e e q   q   e  q   e  q
d |-------------|-------------|-------------|------------------|
f |-------------|-------------|-------------|------------------|
a |-------------|-------------|-------------|------------------|
c |-------------|-------------|-------------|------------------|
g |0-----0-0-0--|8----8----8--|0-----0-0-0--|10-----10-----10--|
c |0--0--0-0-0--|8--8-8--8-8--|0--0--0-0-0--|10--10-10--10-10--|
      .             .    .        .               .      .

    Gtr I

   q  q   e  e  q    q.   q   e e  e  q  e e e e e e  q   e  e  e  e  e  e
d |-----------------|----------------|---------------|----------------------|
f |-----------------|----------------|---------------|----------------------|
a |---14--14\12\10--|12---10--9/10\7-|9--9-9-9-9-9-9-|10--10-10-10-10-10-10-|
c |-----------------|----------------|---------------|----------------------|
g |0--12--12\10\8---|10---8---7/8-\5-|7--7-7-7-7-7-7-|8---8--8--8--8--8--8--|
c |0----------------|----------------|---------------|----------------------|
  |
  | Gtr II
  |
  |q  q  e e q   q  e q  e q   q  e e e e e e  q  e e e e e e
d |-------------|-------------|---------------|---------------|
f |-------------|-------------|---------------|---------------|
a |-------------|-------------|---------------|---------------|
c |-------------|-------------|---------------|---------------|
g |0-----0-0-0--|8----8----8--|7--7-7-7-7-7-7-|8--8-8-8-8-8-8-|
c |0--0--0-0-0--|8--8-8--8-8--|7--7-7-7-7-7-7-|8--8-8-8-8-8-8-|
      .             .    .

Pre-Chorus

Gtr II  (Gtr I  enter last 8th note of 3rd bar)

   e e e e q  e e  e   q  e e e e e  e   e e e q  e  e e  q  e h
d |---------------|-----------------|-----------------|---------------|
a |---------------|-----------------|-----------------|---------------|
f |---------------|-----------------|-----------------|---------2*----|
c |---------------|-----------------|-----------------|---------4*----|
g |0--------------|---------------0-|(0)--------------|---------------|
c |0-8-7-5-3--5-6-|(6)-5--3-1-3-1-0-|(0)-8-7-5-3--5-6-|(6)-5--3-------|
                       .  . . . .                          .  .

Pre-Chorus II (2x)

    Gtr I

   e e e e q  e e  e   q  e e e e e  e   e e e q  e  e e   q  e h
d |---------------|-----------------|-----------------|---------------|
a |---------------|-----------------|-----------------|---------------|
f |---------------|-----------------|-----------------|---------------|
c |---------------|-----------------|-----------------|---------7*----|
g |0--------------|---------------0-|(0)--------------|---------------|
c |0-8-7-5-3--5-6-|(6)-5--3-1-3-1-0-|(0)-8-7-5-3--5-6-|(6)-5--3-------|
  |                    .  . . . .                          .  .
  | Gtr II
  |
  |q  e e q  q  Re e q Re e e e  q  e e q  q  Re ssq Re ssq
d |-------------|---------------|-------------|--------------|
a |-------------|---------------|-------------|--------------|
f |-------------|---------------|-------------|--------------|
c |-------------|---------------|-------------|--------------|
g |0------------|---------------|0------------|--------------|
c |0--0-0-0--0--|--0-0----0-0-0-|0--0-0-0--0--|--000----000--|
      . . .  .     . .    . . .     . . .  .     ...    ...

    Gtr I

   e e e e q  e e  e   q  e e e e e  e   e e e q  e  e e   q  e h
d |---------------|-----------------|-----------------|---------------|
a |---------------|-----------------|-----------------|---------------|
f |---------------|-----------------|-----------------|---------5*----|
c |---------------|-----------------|-----------------|---------------|
g |0--------------|---------------0-|(0)--------------|---------------|
c |0-8-7-5-3--5-6-|(6)-5--3-1-3-1-0-|(0)-8-7-5-3--5-6-|(6)-5--3-------|
  |                    .  . . . .                          .  .
  | Gtr II
  |
  |q  e e q  q  Re e q Re e e e  q  e e q  e e   e   q  e h
d |-------------|---------------|--------------|----------------|
a |-------------|---------------|--------------|----------------|
f |-------------|---------------|--------------|----------------|
c |-------------|---------------|--------------|----------4*----|
g |0------------|---------------|0-------------|----------------|
c |0--0-0-0--0--|--0-0----0-0-0-|0--0-0-0--0-6-|-(6)-5--3-------|
      . . .  .     . .    . . .     . . .  .


Gtr I & II

   w          w
d |----------|----------|
a |----------|----------|
f |----------|----------|
c |0~--------|7~--------|
g |0~--------|8~--------|
c |0~--------|0~--------|


Verse


Gtr I & Gtr II

   q  e e sse sse  q  e e sse sse  q  e e sse sse  q   q   q   q
d |---------------|---------------|---------------|----------------|
a |---------------|---------------|---------------|----------------|
f |---------------|---------------|---------------|----------------|
c |7~-------------|7~-------------|7~-------------|12--12--10--12--|
g |8~-------------|8~-------------|8~-------------|13--13--12--13--|
c |0--0-0-000-000-|0--0-0-000-000-|0--0-0-000-000-|----------------|
      . . ... ...     . . ... ...     . . ... ...

Gtr I & Gtr II

   q  e e sse sse  q  e e sse sse  q  e e sse sse  q  e e q   q
d |---------------|---------------|---------------|---------------|
a |---------------|---------------|---------------|---------------|
f |---------------|---------------|---------------|---------------|
c |7~-------------|7~-------------|8--------------|5------8---3---|
g |8~-------------|8~-------------|8--------------|5------8---3---|
c |0--0-0-000-000-|0--0-0-000-000-|8--8-8-888-888-|5--5-5-8---3---|
      . . ... ...     . . ... ...     . . ... ...

   q  e e sse sse  q  e e sse sse  q  e e sse sse  q   q   q   q
d |---------------|---------------|---------------|----------------|
a |---------------|---------------|---------------|----------------|
f |---------------|---------------|---------------|----------------|
c |7~-------------|7~-------------|7~-------------|12--12--10--12--|
g |8~-------------|8~-------------|8~-------------|13--13--12--13--|
c |0--0-0-000-000-|0--0-0-000-000-|0--0-0-000-000-|----------------|
      . . ... ...     . . ... ...     . . ... ...

Gtr I & Gtr II

   q  e e sse sse  q  e e sse sse  q  e e sse sse  q  e e q   q
d |---------------|---------------|---------------|---------------|
a |---------------|---------------|---------------|---------------|
f |---------------|---------------|---------------|---------------|
c |7~-------------|7~-------------|5--------------|3------5---5---|
g |8~-------------|8~-------------|5--------------|3------5---5---|
c |0--0-0-000-000-|0--0-0-000-000-|5--5-5-555-555-|3--3-3-5---5---|
      . . ... ...     . . ... ...     . . ... ...


Chorus (4x)

    Gtr I
   q  q   e  e  q    q.   q   e e  e  q  q   e  e  q    q.   q   e e  e
d |-----------------|----------------|-----------------|-----------------|
f |-----------------|----------------|-----------------|-----------------|
a |---14--14\12\10--|12---10--9/10\7-|---14--14\12\10--|12---10--9/10\7--|
c |-----------------|----------------|-----------------|-----------------|
g |0--12--12\10\8---|10---8---7/8-\5-|0--12--12\10\8---|10---8---7/8-\5--|
c |0----------------|----------------|0----------------|-----------------|
  |
  | Gtr II
  |q  q  e e q   q  e q  e q   q  q  e e q   q   e  q   e  q
d |-------------|-------------|-------------|------------------|
f |-------------|-------------|-------------|------------------|
a |-------------|-------------|-------------|------------------|
c |-------------|-------------|-------------|------------------|
g |0-----0-0-0--|8----8----8--|0-----0-0-0--|10-----10-----10--|
c |0--0--0-0-0--|8--8-8--8-8--|0--0--0-0-0--|10--10-10--10-10--|
      .             .    .        .               .      .

    Gtr I

   q  q   e  e  q    q.   q   e e  e  q  e e e e e e  q   e  e  e  e  e  e
d |-----------------|----------------|---------------|----------------------|
f |-----------------|----------------|---------------|----------------------|
a |---14--14\12\10--|12---10--9/10\7-|9--9-9-9-9-9-9-|10--10-10-10-10-10-10-|
c |-----------------|----------------|---------------|----------------------|
g |0--12--12\10\8---|10---8---7/8-\5-|7--7-7-7-7-7-7-|8---8--8--8--8--8--8--|
c |0----------------|----------------|---------------|----------------------|
  |
  | Gtr II
  |
  |q  q  e e q   q  e q  e q   q  e e e e e e  q  e e e e e e
d |-------------|-------------|---------------|---------------|
f |-------------|-------------|---------------|---------------|
a |-------------|-------------|---------------|---------------|
c |-------------|-------------|---------------|---------------|
g |0-----0-0-0--|8----8----8--|7--7-7-7-7-7-7-|8--8-8-8-8-8-8-|
c |0--0--0-0-0--|8--8-8--8-8--|7--7-7-7-7-7-7-|8--8-8-8-8-8-8-|
      .             .    .

Gtr I & II

d |------------|
f |------------|
a |------------|
c |7-----------|
g |0-----------|
c |0-----------|

Any questions, comments, concerns, threats, e-mail me at lttldrmmrboy@aol.com
Добавлено: 07.05.2012
Другие материалы по этой песне:
  • Аккорды и текст

Страница создана 26.02.2012
http://primanota.ru/haste-the-day/perfect-night-chords.htm
Привет, Гость.
Предлагаем пройти революционный курс по гитаре.
Подарок от PrimaNota.Ru, забирай!