PrimaNota.ru - самый крупный в мире бесплатный архив песенных текстов, аккордов, табулатур и нот


Hardcore Superstar - Spreadin The News - таба, видео

Регистрация Запомнить меня
Войти через:  Facebook Google Twitter Vk Yandex Mail.ru

Hardcore Superstar - Spreadin The News - таба, видео

Печатать
Просмотров: 91
Уроки эстрадного вокала в Санкт-Петербурге
-------------------------------------------------------------------------------
                             Spreadin' the News - Hardcore Superstar
-------------------------------------------------------------------------------
Album: Dreamin' in a Casket (2007)

Tabbed by: Jan Bloemen
E-mail: xjuggax@gmx.de

Tuning: Standard E A D G B e


Intro
e|----------|----------|---------12-|-10---------|----------|----------|---------10-|-12---------|
B|-9--------|----------|-12------12-|-10---------|-9--------|----------|-12------10-|-12---------|
G|-9------8-|-9--------|-12------12-|-11---------|-9------8-|-9--------|-12------11-|-12---------|
D|-9------9-|-10-------|-12---------|------------|-9------9-|-10-------|-12---------|------------|
A|--------9-|-10-------|------------|------------|--------9-|-10-------|------------|------------|
E|----------|----------|------------|------------|----------|----------|------------|------------| x2

Riff 1a (at 0:32)
e|-------------------------|-------------------------|-------------------------|------------------------|
B|-------------------------|-------------------------|-------------------------|------------------------|
G|-------------------------|-------------------------|-------------------------|------------------------|
D|------------9-9----------|------------9-9----------|------------9-9----------|------------9-9---------|
A|-2----------7-7-----9\8--|-2----------7-7-----9\8--|-2----------7-7-----9\8--|-2----------7-7-----9---|
E|-0---3-4-0------0-0-7\6--|-0---3-4-0------0-0-7\6--|-0---3-4-0------0-0-7\6--|-0---3-4-0------0-0-7---|


Riff 1b (at 0:40)
e|-------------------------|-------------------------|-------------------------|-------------------|
B|-------------------------|-------------------------|-------------------------|-------------------|
G|-------------------------|-------------------------|-------------------------|-9999999977777777--|
D|-------------9-----------|-------------9-----------|-------------9-----------|-9999999977777777--|
A|-2-----------7------9\8--|-2-----------7------9\8--|-2-----------7------9\8--|-------------------|
E|-0--3-4-0--0----0-0-7\6--|-0--3-4-0--0----0-0-7\6--|-0--3-4-0--0----0-0-7\6--|-------------------|


Verse (at 0:55)
e|----------------------------|     |-----------------------------------------|
B|----------------------------|     |-----------------------------------------|
G|----------------------------|     |-9-9-9-9-9-9-9-9-11-11-11-11-11-11-11-11-|
D|----------------------------|     |-9-9-9-9-9-9-9-9-11-11-11-11-11-11-11-11-|
A|----------------------------|     |-----------------------------------------|
E|-0-0-3-4-0--0-0--0--0-0-0-0-| x12 |-----------------------------------------|

Refrain (at 1:19)
e|-----------|--------|-----------------|-----------------|
B|-----------|--------|-----------------|-----------------|
G|-----------|--------|-----------------|-----------------|
D|-----------|-5------|---6/7---5/7-----|-----------------|
A|-2---4-5-2-|-3--5---|-2-4/5-2-4/5-2-4/|-5\4/5/7-9-------|
E|-0---2-3-0-|----3---|-0-----0-----0-2/|-3\2/3/5-7---3---| x2


e|----------|----------|---------12-|-10--------|-----------|--------|
B|-9--------|----------|-12------12-|-10--------|-----------|--------|
G|-9------8/|-9--------|-12------12-|-11--------|-----------|--------|
D|-9------9/|-10-------|-12---------|-----------|-----------|-5------|
A|--------9/|-10-------|------------|-----------|-2---4-5-2-|-3--5---|
E|----------|----------|------------|-----------|-0---2-3-0-|----3---|


Repeat Riff 1b, Verse and Refrain

Solo (2nd gtr plays Refrain), start with sliding the plec down the e-string

e|------------------------------------|------------------------------------|
B|------------------------------------|------------------------------------|
G|------------------------------------|------------------------------------|
D|---7b9---------------<19>--r7-b9-r7-|b9-r7-b9-r7-b9-r7-b9-r7-b9----------|
A|------------------------------------|------------------------------------|
E|------------------------------------|------------------------------------|
          Tap harmonic with right hand

e|-------12-12-------10-10-12-12-12-12---|-------12-12--------12-12-15------|
B|-12-12-------10-10---------------------|-12-12-------12-12----------------|
G|---------------------------------------|----------------------------------|
D|---------------------------------------|----------------------------------|
A|---------------------------------------|----------------------------------|
E|---------------------------------------|----------------------------------|


e|------------------------------------|------------------------------------|
B|-7h8p7p5h7------7-8-10---12~--------|-12~----------------10~-----7~------|
G|--------------9---------------------|------------------------------------|
D|------------------------------------|------------------------------------|
A|------------------------------------|------------------------------------|
E|------------------------------------|------------------------------------|


e|------------------------------------|------------------------------------|
B|------------------------------------|------------------------------------|
G|------------------------------------|------------------------------------|
D|---------------9-9------------------|-------9-9-10-10-12-12-10~----------|
A|-7-7-9-9-10-10-----7~---------------|-10-10------------------------------|
E|------------------------------------|------------------------------------|


e|-----------------------------------------------|
B|-----------------------------------------------|
G|--------------------11-11-12-12-14-14-12-12-11-|
D|--------------14-14----------------------------|
A|--14-14-15-15----------------------------------|
E|-----------------------------------------------|

e|-----------------------------------------------------------|
B|-----------------------------------------------------------|
G|-11h12p11----11h12p11----11h12p11h12p11h12p11h12p11h12~----|
D|----------14----------14-----------------------------------|
A|-----------------------------------------------------------|
E|-----------------------------------------------------------|


e|-12-------------------15------------|------------------------------------|
B|----15b17r15-12-15b17----15b17r15---|-12~--------------------------------|
G|------------------------------------|------------------------------------|
D|------------------------------------|------------------------------------|
A|------------------------------------|------------------------------------|
E|------------------------------------|------------------------------------|

The last part consists of repetitions previously tabbed, except for

Intermezzo (at 3:53)
e|-----------------|    
B|-----------------|    
G|-----------------|   
D|-----------------|   
A|-2-2-2-2-2-2-2-2-|    
E|-0-0-0-0-0-0-0-0-|

and the last two bars are different from the refrain in the last chord:
Last bars (at 4:19)
e|-----------|-----------|---------|
B|-----------|-----------|---------|
G|-----------|-----------|---------|
D|-----------|-5---7-7---|-9-------|
A|-2---4-5-2-|-3---5-5---|-7-------|
E|-0---2-3-0-|-----------|---------|

************************************

| /   slide up
| \   slide down
| h   hammer-on
| p   pull-off
| ~   vibrato
| <>  harmonic
| x   Mute note
| b   Bend
| r   Bend release

************************************
Добавлено: 02.06.2016
Другие материалы по этой песне:
  • Аккорды и текст

Страница создана 02.06.2016
http://primanota.ru/hardcore-superstar/spreadin-news-chords.htm
Привет, Гость.
Предлагаем пройти революционный курс по гитаре.
Подарок от PrimaNota.Ru, забирай!