PrimaNota.ru - самый крупный в мире бесплатный архив песенных текстов, аккордов, табулатур и нот


Hardcore Superstar - Medicate Me - таба, видео

Регистрация Запомнить меня
Войти через:  Facebook Google Twitter Vk Yandex Mail.ru

Hardcore Superstar - Medicate Me - таба, видео

Печатать
Просмотров: 145
standard tuning
didn't figure out the solo

I'm 90% sure that this tab is correct
hope you'll enjoy, and if the tab is wrong, figure out my mistakes.

check out the timing

riff 1

e ---------------------------0-|
b ---------------------------0-|
g -2p0------2p0-----2p0--------|
d -2p0-222--2p0-222-2p0-22222--|
a -----222------222-----22222--|
E -----000------000-----00000--|

riff 2
e -----------------------------|
b -----------------------------|
g -----------------------------|
d 2-5-7/8--5-7/8---------------|
a 2-5-7/8--5-7/8---------------|
E 0-3-5/6--3-5/6---------------|

riff 3
e ------------------------------|
b ------------------------------|
g ------------------------5-7---|
d 2-5-7/8--5-7/8--2-5-7/8-5-7---|
a 2-5-7/8--5-7/8--2-5-7/8-3-5---|
E 0-3-5/6--3-5/6--0-3-5/6-------|

riff 4
e -----------------|
b -----------------|
g --12-7-9-5-7-----|
d --12-7-9-5-7-----|
a --10-5-7-3-5-----|
E 0----------------|

riff 5
e ----------------------|
b ----------------------|
g 2p0-----2p0-----2p0---|
d 2p0-222-2p0-222-2p0-2-|
a ----222-----222-----2-|
E ----000-----000-----0-|

intro:
riff 1 x4
riff 2 x4
*scream*
riff 3 x2

vers:
riff 1 x 4
riff 3 x 2

ref:
riff 4 x 4
riff 3 x 2

vers:
riff 1 x 4
riff 3 x 2

ref:
riff 4 x 4
riff 3 x 2

break:
riff 1 4

solo:
riff 4 x4
riff 3 x2
ref:
riff 4 x8

end:
riff 5 x1
Добавлено: 25.05.2012
Другие материалы по этой песне:
  • Аккорды и текст

Страница создана 25.05.2012
http://primanota.ru/hardcore-superstar/medicate-me-chords.htm
Привет, Гость.
Предлагаем пройти революционный курс по гитаре.
Подарок от PrimaNota.Ru, забирай!