PrimaNota.ru - самый крупный в мире бесплатный архив песенных текстов, аккордов, табулатур и нот


Hardcore Superstar - Shes Offbeat - таба, видео

Регистрация Запомнить меня
Войти через:  Facebook Google Twitter Vk Yandex Mail.ru

Hardcore Superstar - Shes Offbeat - таба, видео

Печатать
Просмотров: 152
Great song of great band frome Sweden..




Intro
e|-----0------------------------------0------------------------------|
B|-----0------------------------------0------------------------------|
G|-------------------------------------------------------------------|
D|-----------2/5-4-2p0-2---2/5-4-0---------2/5-4-2p0-2---2/5-4-0-----|
A|-------------------------------------------------------------------|
E|-0------0--------------0---------0-----0-------------0-------------|



e|-----0------------------------------0------------------------------|
B|-----0------------------------------0------------------------------|
G|-------------------------------------------------------------------|
D|-----------2/5-4-2p0-2---2/5-4-0---------2/5-4-2p0-2---2/5-4-0-----|
A|-------------------------------------------------------------------|
E|-0------0--------------0---------0-----0-------------0-------------|

e|------------0------------------------------------------------------|
B|------------0------------------------------------------------------|
G|-5---7---------------------------------5-5-5---7-7-7---------------|
D|-5---7----------2/5-4-2p0-2---2/5-4-0--5-5-5---7-7-7---------------|
A|-3---5---------------------------------3-3-3---5-5-5---------------|
E|---------0----0-------------0--------------------------------------|

Riff 
e|-------------------------------------------------------------------------|
B|-------------------------------------------------------------------------|
G|-------------------------------------------------------------------------|
D|---4-3----------------4-3----------------4-3----------------4-1----------|
A|-2-2-1--------------2-2-1--------------2-2-1--------------2-2-3----------|
E|-0-----0-3-2-0-3-2--0-----0-3-2-0-3-2--0-----0-3-2-0-3-2--0-----32002233-|
pm                                                                ........

Verse
e|---------------------------------------------------------------------|
B|---------------------------------------------------------------------|
G|---------------------------------------------------------------------|
D|---------------------------------------------------------------------|
A|---2--2-------------2--2-------------2--2-------------2--2-----------|
E|-00-00-0032003322-00-00-0032003322-00-00-0032003322-00-00-0032003322-|

e|---------------------------------------------------------------------|
B|---------------------------------------------------------------------|
G|---------------------------------------------------------------------|
D|---------------------------------------------------------------------|
A|---2--2-------------2--2-------------2--2-------------2--2-----------|
E|-00-00-0032003322-00-00-0032003322-00-00-0032003322-00-00-0032003322-|

Chorus
e|----------------------------------------------------------------|
B|----------------------------------------------------------------|
G|--5-5-5--5-5-5--7-7-7--7-7-7--2-2-2--2-2-2--4-4-4--4-4-4--------|
D|--5-5-5--5-5-5--7-7-7--7-7-7--2-2-2--2-2-2--4-4-4--4-4-4--------|
A|--3-3-3--3-3-3--5-5-5--5-5-5--0-0-0--0-0-0--2-2-2--2-2-2--------|
E|----------------------------------------------------------------|

e|----------------------------------------------------------------|
B|----------------------------------------------------------------|
G|--5-5-5--5-5-5--7-7-7--7-7-7--2-2-2--2-2-2--4-4-4--4-4-4--------|
D|--5-5-5--5-5-5--7-7-7--7-7-7--2-2-2--2-2-2--4-4-4--4-4-4--------|
A|--3-3-3--3-3-3--5-5-5--5-5-5--0-0-0--0-0-0--2-2-2--2-2-2--------|
E|----------------------------------------------------------------|

e|----------------------------------------------------------------|
B|----------------------------------------------------------------|
G|--5-5-5--7-7-7--------------------------------------------------|
D|--5-5-5--7-7-7--------------------------------------------------|
A|--3-3-3--5-5-5--------------------------------------------------|
E|----------------------------------------------------------------|

Intro
Riff 
Verse
Chorus
Riff
Verse
Chorus
Bridge(Basically the verse 8 times)
Solo(over chorus)
Chorus
Riff

That's the hole song..the solo is easy but i don't have the time to put it down..
Добавлено: 12.04.2012
Другие материалы по этой песне:
  • Аккорды и текст

Страница создана 12.04.2012
http://primanota.ru/hardcore-superstar/shes-offbeat-chords.htm
Привет, Гость.
Предлагаем пройти революционный курс по гитаре.
Подарок от PrimaNota.Ru, забирай!