PrimaNota.ru - самый крупный в мире бесплатный архив песенных текстов, аккордов, табулатур и нот


Hans Zimmer - Youre So Cool - таба, видео

Регистрация Запомнить меня
Войти через:  Facebook Google Twitter Vk Yandex Mail.ru

Hans Zimmer - Youre So Cool - таба, видео

Печатать
Просмотров: 184
>From the Tarantino movie True Romance

              You're G Cool (Hans Zimmer)

Transcribed by B Gill

Easy melody Version (bass not included)

Repeat the next 3 lines 5x adding instrumets each time

e|-----|-------|-------|-------|--------|--------|-------|------
B|-----|-------|-------|-------|--------|--------|----1--|------
G|-4-4-|--4-4--|--4-2--|--2-4--|--4-4---|--4-4---|--4----|--4-2-
D|-----|-------|-------|-------|--------|--------|-------|------
A|-----|-------|-------|-------|--------|--------|-------|------
E|-----|-------|-------|-------|--------|--------|-------|------


e|-----|-------|-------|-------|--------|--------|-------|------
B|-----|-------|-------|-------|----5---|--5-3---|-------|------
G|-4-4-|--4-4--|--4-2--|--2-4--|--0-----|--------|--4-2--|--2-4-
D|-----|-------|-------|-------|--------|--------|-------|------
A|-----|-------|-------|-------|--------|--------|-------|------
E|-----|-------|-------|-------|--------|--------|-------|------


e|-----|-------|----------|-------|--------|--------|-------|------
B|-----|-------|----------|-------|--------|--------|-------|------
G|-----|-------|----------|-------|--------|--------|-------|------
D|-4-2-|--2-4--|-4-5-5-5-5|-------|--------|--------|-------|------
A|-----|-------|----------|-------|--------|--------|-------|------
E|-----|-------|----------|-------|--------|--------|-------|------

--epilogue

e|-----------|-------|-------|-------|-----------|------|--------|------
B|-----------|-------|-------|-------|-----------|------|--------|------
G|4-4-4-4-2-0|-------|0-0-0-0|2-4--2-|4-4-4-4-2-0|------|-0-0-0-0|2-4--2
D|-----------|--3----|-------|-------|-----------|-3----|--------|------
A|-----------|-3--3--|-------|-------|-----------|3--3--|--------|------
E|-----------|-----1-|-------|-------|-----------|----1-|--------|------


e|------|--------|--------|----------|-----|-------|-------|-----------|
B|-3-3-3|-0-3-3-5|-3-3-3-0|3-3-5-0---|3-3-3|0-3-3-5|3-3-3-0|3-3-5-0----|
G|------|--------|--------|-------2-0|-----|-------|-------|--------2-0|
D|------|--------|--------|----------|-----|-------|-------|-----------|
A|------|--------|--------|----------|-----|-------|-------|-----------|
E|------|--------|--------|----------|-----|-------|-------|-----------|


e|------------|-------|----------|-------|--------|--------|-----------|
B|0-0-0-0-----|-------|------0---|0-0-0-0|---0----|--------|---0-------|
G|--------2-0-|-0-0---|0-0-2----2|-------|-2------|-0-0-0-0|-2---2-----|
D|------------|-------|----------|-------|--------|--------|-----------|
A|------------|-------|----------|-------|--------|--------|-----------|
E|------------|-------|----------|-------|--------|--------|-----------|

Repeat 2x
e|-----|-------|--------|----------|-----|--------|--------|-----------|
B|3-3-3|0-3-3-5|-3-3-3-0|3-3-5-0---|3-3-3|-0-3-3-5|-3-3-3-0|3-3-5-0----|
G|-----|-------|--------|-------2-0|-----|--------|--------|--------2-0|
D|-----|-------|--------|----------|-----|--------|--------|-----------|
A|-----|-------|--------|----------|-----|--------|--------|-----------|
E|-----|-------|--------|----------|-----|--------|--------|-----------|


e|-----|-------|-------|-------|--------|--------|-------|------
B|-----|-------|-------|-------|--------|--------|-------|------
G|-4-2-|-------|-------|-------|--------|--------|-------|------
D|-----|-------|-------|-------|--------|--------|-------|------
A|-----|-------|-------|-------|--------|--------|-------|------
E|-----|-------|-------|-------|--------|--------|-------|------

-- 
Bob Gill  gillb4@telusplanet.net>
     
Добавлено: 07.06.2013
Другие материалы по этой песне:
  • Аккорды и текст

Страница создана 07.06.2013
http://primanota.ru/hans-zimmer/youre-so-cool-chords.htm
Привет, Гость.
Предлагаем пройти революционный курс по гитаре.
Подарок от PrimaNota.Ru, забирай!