PrimaNota.ru - самый крупный в мире бесплатный архив песенных текстов, аккордов, табулатур и нот


Hans Zimmer - Interstellar Main Theme - таба, видео

Регистрация Запомнить меня
Войти через:  Facebook Google Twitter Vk Yandex Mail.ru

Hans Zimmer - Interstellar Main Theme - таба, видео

Печатать
Просмотров: 740
Уроки эстрадного вокала в Санкт-Петербурге
-------------------------------------------------------------------------------
                     INTERSTELLAR MAIN THEME - Hans Zimmer
-------------------------------------------------------------------------------

Tabbed by: Ronan McIntyre



Standard Tuning: E A D G B e

This is my first tab, for the theme of one of my favourite movies. I didn't get as
far as the fast part, but I think it is mostly accurate. 

Don't use a pick.

************************************

 ~   let it ring
( )  optional note

************************************

Guitar 1
e|-0---0---0---0---0---0---0---0---0---0---0---0---0---0---0---0----|
B|---1---1---1---1---1---1---1---1---1---1---1---1---1---1---1---1--|
G|------------------------------------------------------------------|
D|------------------------------------------------------------------|
A|------------------------------------------------------------------|
E|------------------------------------------------------------------|

Guitar 2
e|------------------------------------------------------------------|
B|------------------------------------------------------------------|
G|------------------------------------------------------------------|
D|------------------------------------------------------------------|
A|------------------------------------------------------------------|
E|------------------------------------------------------------------|



Guitar 1
e|-0---0---0-- 0---0---0---0---0---0---0---0---0---0---0---0---0----|
B|---1---1---1---1---3---3---3---3---3---3---3---3---3---3---3---3--|
G|------------------------------------------------------------------|
D|------------------------------------------------------------------|
A|------------------------------------------------------------------|
E|------------------------------------------------------------------|

Guitar 2
e|------------------------------------------------------------------|
B|------------------------------------------------------------------|
G|-2~--------------4~------------------------------2---4---5---4----|
D|-2~--------------2~------------------------------2---2---2---2----|
A|------------------------------------------------------------------|
E|------------------------------------------------------------------|



Guitar 1
e|-0---0---0---0---0---0---0---0---0---0---0---0--------------------|
B|---3---3---3---3---3---3---3---3---3---3---3---3------------------|
G|------------------------------------------------------------------|
D|------------------------------------------------------------------|
A|------------------------------------------------------------------|
E|------------------------------------------------------------------|

Guitar 2
e|-----------------------------------------------------0------------|
B|------------------------------------------------------------------|
G|-2---4---5~--------------4~----------------------2----------------|
D|-2---2---2~--------------2~----------------------2----------------|
A|------------------------------------------------(0)----------------|
E|------------------------------------------------------------------|


Guitar 2
e|-----0---------------0---------------0--------------0-------------|
B|------------------------------------------------------------------|
G|-2---------------4---------------4--------------5-----------------|
D|-2---------------2---------------2--------------2-----------------|
A|(0)-------------(2)-------------(2)------------(3)----------------|
E|------------------------------------------------------------------|


Guitar 2
e|-----0---------------0---------------0---------------0------------|
B|-----------------------------------------0------------------------|
G|-5---------------7---------------7---------------2----------------|
D|-2---------------5---------------5---------------2----------------|
A|(3)-------------(5)-------------(5)-------------(0)---------------|
E|------------------------------------------------------------------|


Guitar 2
e|-----0---------------0---------------0--------------0-------------|
B|------------------------------------------------------------------|
G|-2---------------4---------------4--------------5-----------------|
D|-2---------------2---------------2--------------2-----------------|
A|(0)-------------(2)-------------(2)------------(3)----------------|
E|------------------------------------------------------------------|

Guitar 2
e|-----0---------------0---------------0---------------0------------|
B|-----------------------------------------0------------------------|
G|-5---------------7---------------7---------------2-------2--------|
D|-2---------------5---------------5---------------2----------------|
A|(3)-------------(5)-------------(5)-------------(0)---------------|
E|------------------------------------------------------------------|


Guitar 2
e|-----0---------------0---------------0--------------0-------------|
B|------------------------------------------------------------------|
G|-2-------2-------4-------4-------4-------4------5-------5---------|
D|-2---------------2---------------2--------------2-----------------|
A|(0)-------------(2)-------------(2)------------(3)----------------|
E|------------------------------------------------------------------|


Guitar 2
e|-----0---------------0-----------------0--------------0~~---------|
B|-------------------------0-------------------0--------------------|
G|-5-------5-------7---------------7--------------------------------|
D|-2---------------5---------------5--------------------------------|
A|(3)-------------(5)-------------(5)-------------------------------|
E|------------------------------------------------------0~~---------|

Добавлено: 19.09.2015
Другие материалы по этой песне:

Страница создана 21.07.2015
http://primanota.ru/hans-zimmer/interstellar-main-theme-chords.htm
Привет, Гость.
Предлагаем пройти революционный курс по гитаре.
Подарок от PrimaNota.Ru, забирай!