PrimaNota.ru - самый крупный в мире бесплатный архив песенных текстов, аккордов, табулатур и нот


Hans Zimmer - Chocolate - таба, видео

Регистрация Запомнить меня
Войти через:  Facebook Google Twitter Vk Yandex Mail.ru

Hans Zimmer - Chocolate - таба, видео

Печатать
Просмотров: 249


E-2-3-4-5---2-3-4-5---2-3-4-5---2-3-4-5/7-7------
B-2-3-4-5---2-3-4-5---2-3-4-5---2-3-4-5/7-7------
G-------------------------------------------9----
D------------------------------------------------
A------------------------------------------------
E------------------------------------------------

  Chocolate           Chocolate            Ya 
Repeat 4x

E-3-4-5-6---3-4-5-6------------------------------
B-------------------3-4-5-6/10-12----------------
G-----------------------------------------19------
D------------------------------------------------
A------------------------------------------------
E------------------------------------------------
  Chocolate           Chocolate            Ya 
Repeat 2x

E--------4------------5-----------6---------7-----
B------------------------------------------------
G-------------4-------------5-----------6---------7-
D------------------------------------------------
A------------------------------------------------
E------------------------------------------------
Repeat 1x


Wait 32 beats while trombone does solo...


E----------------------------------------------
B----------------------------------------------
G----------------------------7--7---12--13-14--
D-----------------5--5--7^9--9--14-------------
A--5^7--5^7-7--7--7----------------------------
E----------------------------------------------


E----------12----------------------------------
B------12------15/12---------------------------
G--16------------------15/14/12---14/12----13--
D---------------------------------------14-----
A----------------------------------------------
E----------------------------------------------

  E D A E                      B   A
E----------------------------------------------
B----------------------------------12-10/8-----
G------13-13-14-12--12-9----12-9-9---------9-9-
D-14---------------------12--------------------
A----------------------------------------------
E----------------------------------------------


ENJOY    
 

Добавлено: 28.11.2013
Другие материалы по этой песне:
  • Аккорды и текст

Страница создана 28.11.2013
http://primanota.ru/hans-zimmer/chocolate-chords.htm
Привет, Гость.
Предлагаем пройти революционный курс по гитаре.
Подарок от PrimaNota.Ru, забирай!