PrimaNota.ru - самый крупный в мире бесплатный архив песенных текстов, аккордов, табулатур и нот


Hans Zimmer - Homeland Spirit Stallion Of The Cimarron - таба, видео

Регистрация Запомнить меня
Войти через:  Facebook Google Twitter Vk Yandex Mail.ru

Hans Zimmer - Homeland Spirit Stallion Of The Cimarron - таба, видео

Печатать
Просмотров: 930
Heres the soundtrack, Homeland, from the movie Spirit: stallion of the Cimarron. I made
it really simple, but maybe there are some differences between this one and the real
song, so hope you dont mind, and enjoy! *you can also put bass strings in it, hope you 
can figure that out, because I didnt ;)

~Part 1~
|--------------------------------------------------------------------------|
|------1----3----5----3----1----0------------------------------------------|
|--0------------------------------------2---0---------0--------------------|
|--------------------------------------------------3-----------------------|
|--------------------------------------------------------------------------|
|--------------------------------------------------------------------------|

~Part 2~
|--------------3-----3--5--3--1--3--3--5--3--1--3--0--0--------8--8--7--5--|
|----1--3--5------1--------------------------------------3--1--------------|
|-0------------------------------------------------------------------------|
|--------------------------------------------------------------------------|
|--------------------------------------------------------------------------|
|--------------------------------------------------------------------------|

|--------------------------------------------------------------------------|
|----1--3--5--5--3--1--3--1------------------------------------------------|
|-0------------------------------------------------------------------------|
|--------------------------------------------------------------------------|
|--------------------------------------------------------------------------|
|--------------------------------------------------------------------------|

~Part 3~
|--------------------------------0--------------------0--3--3--5-1-1--3----|
|----1--0------------1--0--1--3--------1--0-----1--3-----------------------|
|-0-------2--0----0-----------------0--------2-----------------------------|
|---------------2----------------------------------------------------------|
|--------------------------------------------------------------------------|
|--------------------------------------------------------------------------|



If youve anything to say about the tab, you can always mail me; lisa98_vdmeer@hotmail.com

Xoxo
Добавлено: 01.12.2013
Другие материалы по этой песне:
  • Аккорды и текст

Страница создана 01.12.2013
http://primanota.ru/hans-zimmer/homeland-spirit-stallion-of-the-cimarron-chords.htm
Привет, Гость.
Предлагаем пройти революционный курс по гитаре.
Подарок от PrimaNota.Ru, забирай!