PrimaNota.ru - самый крупный в мире бесплатный архив песенных текстов, аккордов, табулатур и нот


Graham Coxon - In The Morning - таба, видео

Регистрация Запомнить меня
Войти через:  Facebook Google Twitter Vk Yandex Mail.ru

Graham Coxon - In The Morning - таба, видео

Печатать
Просмотров: 110
In The Morning (Part One)
Graham Coxon
Tabbed by Mowerista

The tuning is based on live performances from YouTube, see links:-

http://www.youtube.com/watch?v=D7UNwyDvyaU&feature=related
http://www.youtube.com/watch?v=mI_M6ktBPdQ&feature=related


It sounds a step higher on the album. I have tried to stick to the album version where 
possible rather than the live versions.

This covers until "An Angels Wings", more to follow later...


Capo 4th fret, tuning D-G-D-G-B-E.

Intro

E ||----------------------------------|-----------------------------------|
B ||-7b8------5p0------3------1h3p1p0-|-7b8------5P0-------11b12------(12)|
G ||-------0--------0-------0---------|-------0--------0----------0---0---|
D ||-----0--------0-------0---------0-|-----0--------0--------------------|
G ||-0--------0--------0------0-------|-0--------0---------0--------0-----|
D ||----------------------------------|-----------------------------------|


E |----------------------------------|-----------------------------------------|
B |-7b8------5p0------3------1h3p1p0-|-0---------------------------------------|
G |-------0--------0-------0---------|---0-----2P0---0--2--2------2--------2---|
D |-----0--------0-------0-----------|------0------0---------3-----------3---3-|
G |-0--------0--------0------0-------|-0----------------0------0--0----0-------|
D |----------------------------------|-----------------------------------------|

E |--------------------------||
B |-2/3------3-----2/3---0H1-||
G |----------0-----0-----0---||
D |-3------3-------3-----0---||
G |------0-------------------||
D |--------------------------||

Your a piece of the air

E ||---------------------------------|------------------------------||
B ||-----0h1p0-------1----1\3------3-|------0h1p0-------1---0-----0-||
G ||-----0----h2p0---0----0-0----0---|------0----h2p0---0---0---0---||
D ||-0-----------------0-------4-----|-0------------------0---0-----||
G ||-0-----------------0-------0-----|-0------------------0---0-----||
D ||---------------------------------|------------------------------||



     I  -   Don't- Know  - Which       Way        to  go                When I

E ||---------------------------------|--------------------------------------------|
B ||-3------3------3-------3---------|-1p0-------0--------------------------------|
G ||------0------0------0--------0---|-2p0-------0---------0---------0---------0--|
D ||----0------4------0-------4------|---------0---------0---------0---------0----|
G ||-4------5------4-------5---------|-0----0--------0----------0---------0-------|
D ||---------------------------------|--------------------------------------------|



     See     You   Every    Where

E |---------------------------------|---------------------------------||
B |-3------3------3-------3---------|-0---------------------0-------0-||
G |------0------0------0--------0---|------0--------0-----------0-----||
D |----0------4------0-------0------|----0-------0------------0-------||
G |-4------5------4-------2---------|-0-------------------0-------0---||
D |---------------------------------|--------0------------------------||




E ||-----------------------------||
B ||-5h6p5p0-----1h3p1p0-------0-||
G ||-0-----------0-------------0-||
D ||-----------------------------||
G ||---------------------------0-||
D ||-----------------------------||




                        There's  a melody...................            Repeat X2

E ||-------------------------------------------------|-------------------------||
B ||--------------------7----------7h8p7-----------7-|------0--------0h1-------||
G ||--------------------7-----7----7---------7----7--|------0--------0---------||
D ||-------------------------------7h9p7--7----------|--0-------0----0h2-------||
G ||--4p0--5p0--6p0--------7----7--------------7-----|--0-------0------------0-||
D ||-----------------0-------------------------------|-------------------------||



                        If a diamond hangs....

E ||-------------------------------------------------|---------------------------------|
B ||--------------------7----------7h8p7-----------7-|----5-----------5h6p5-----------5|
G ||--------------------7-----7----7---------7----7--|----5------5----5h7p5----5----5--|
D ||-------------------------------7h997--7----------|----------------5-----5----------|
G ||--4p0--5p0--6p0--------7----7--------------7-----|-5------5-----5-------------5----|
D ||-----------------0-------------------------------|---------------------------------|


                                              I listened...


E |-----------------------------------------|----------------------------------------------------|
B |-----3----------------------2-------2----|----------------------------------------------------|
G |-----3---5----------------------2--------|---------------------------------7------9p7-9p7---7-|
D |---------------2------2-------2----------|-5--0-----7--0------9--------9---7--------------7---|
G |--3---------2------2------2-------2------|-4--0-----5--0------7--------7---7------------------|
D |-----------------------------------------|-------------------------0--------------------------|


E |-----------------------------------|---------8--7--------7-------7----||
B |-----0h1p0-------1----1\3------3\5-|5\7------8--8------8---8---8---8--||
G |-----0----h2p0---0----0-0------0---|0----------------0-------0--------||
D |-0-----------------0---------0-----|------0---------------------------||
G |-0-----------------0-------0-------|----0----0-----0------------------||
D |-----------------------------------|----------------------------------||
Добавлено: 18.06.2012
Другие материалы по этой песне:
  • Аккорды и текст

Страница создана 18.06.2012
http://primanota.ru/graham-coxon/in-the-morning-chords.htm
Привет, Гость.
Предлагаем пройти революционный курс по гитаре.
Подарок от PrimaNota.Ru, забирай!