PrimaNota.ru - самый крупный в мире бесплатный архив песенных текстов, аккордов, табулатур и нот


Graham Coxon - Waiting - текст песни, таба, видео

Регистрация Запомнить меня
Войти через:  Facebook Google Twitter Vk Yandex Mail.ru

Graham Coxon - Waiting - текст песни, таба, видео

Печатать
Просмотров: 73
Graham Coxon
Waiting
The Sky Is Too High

Tabbed by: Saviano P.

A simple but hauntingly beautiful song.


e|---------------------|
B|-9---5---9---5---9---|
G|---------------------|
D|---------------------|
A|-0---0---0---0---0---|
E|---------------------|

And i dont want no one to know...

e|-------------------------|
B|-7---5---4---2---4---2---|
G|-------------------------|
D|-------------------------|
A|-0---0---0---0---0---0---|
E|-------------------------|

Добавлено: 22.05.2015
Вам также может быть интересно:
Другие материалы по этой песне:
  • Аккорды и текст

Страница создана 13.09.2014
http://primanota.ru/graham-coxon/waiting-chords.htm
Привет, Гость.
Предлагаем пройти революционный курс по гитаре.
Подарок от PrimaNota.Ru, забирай!