PrimaNota.ru - самый крупный в мире бесплатный архив песенных текстов, аккордов, табулатур и нот


Graham Coxon - A Day Is Far Too Long - текст песни, таба, видео

Регистрация Запомнить меня
Войти через:  Facebook Google Twitter Vk Yandex Mail.ru

Graham Coxon - A Day Is Far Too Long - текст песни, таба, видео

Печатать
Просмотров: 97
Title: A Day Is Far Too Long
Artist: Graham Coxon
Album: The Sky Is Too High (1998)

tabbed by scef (email: funnell_teen_spirit@yahoo.com)

this might not be 100% but it's pretty damn close...

note: where there's a * above a bar the time signature
changes from 4/4 to 2/4 or 2/4 to 4/4, depending on
what it already was

intro (doesn't have to be this exact)
e-------------|-------------|
B-----1-------|-----1-----1-|
G-0h2-2-2---2-|-2-2-2-2---2-|
D-0h2---2-2-2-|-2-2---2-2---|
A---------0---|-0-------0---|
E-------------|-------------|

riff A
e-------------|-------------|--------------|
B-----1-------|-----1-------|----0---------|
G-2-2-2-2-----|-----0-0-----|----0-------0-|
D-2-2---2-2---|-2-----2---0-|------0-----0-|
A-0-------0-2-|-3-------2-0-|-2----2h3-----|
E-------------|-------------|-3------------|

 *                  *
e---------|---------|-------------|----------------|
B-------1-|-----0---|-----1p0---0-|------0h1-1-0---|
G-----2-2-|-----0-0-|-2---2---2-2-|------0-----0-0-|
D---3-3---|---0---0-|-2---2---2---|-2--2---------0-|
A-3-3-----|-2-2-----|-0-----------|-3--------------|
E-1-------|-3-------|-------------|----------------|

               *         *
e--------------|---------|-------|------|
B----0---------|-------1-|-------|------|
G----0-------0-|-----2-2-|-0-----|------|
D------0-----0-|---3-3---|-1-----|------|
A-2----2h3-----|-3-3-----|-2-----|------|
E-3------------|-1-------|-3-----|------|

repeat riff A when the words come in, but instead of
the last 3 bars above play these 3 bars:
*         *
e---------|----------------|-----------------|
B-------1-|------0---------|-----------------|
G-----2-2-|----0-0-------0-|-------0-------0-|
D---3-3---|-0--0-----0-0-0-|---0-0-0---0-0-0-|
A-3-3-----|-2------2-2-3-2-|-2-2-3-2-2-2-3-2-|
E-1-------|-3------3-------|-3-------3-------|

then play this 4 times:

riff C
e-------1----|------------|-----------------|
B-------3----|-----1---1--|-----------------|
G-2---2------|-----0---0--|---------------0-|
D-0---0------|-2-2---2----|---------0-----0-|
A-0------0-2-|-3-----3----|-2-0-2---2h3-----|
E------------|------------|-----3-----------|

e---------------|
B---------------|
G---0-----0---0-|
D---0-0---0-0-0-|
A-2---2h3---2---|
E-3-------------|

the 4th time you play riff C replace the last 2 bars
with these 2 bars:
e--------|---------|
B--------|-------0-|
G-0------|-------0-|
D-1------|---------|
A-2------|-----2---|
E-3------|-----3---|

then it's repition of already tabbed stuff, except for
the atmospheric coda (where a piano comes in) - play
loadsa times
e-----------------|-----------------|
B-----------------|-----------------|
G-----------------|-----------------|
D-0-0-0-0-0-0-0-0-|-0-0-0-0-0-0-0-0-|
A-4-4-4-4-4-4-4-4-|-3-3-3-3-3-3-3-3-|
E-3-3-3-3-3-3-3-3-|-3-3-3-3-3-3-3-3-|

e-----------------|-----------------|
B-----------------|-----------------|
G-0-0-0-0-0-0-0-0-|-4-4-4-4-4-4-4-4-|
D-5-5-5-5-5-5-5-5-|-5-5-5-5-5-5-5-5-|
A-5-5-5-5-5-5-5-5-|-5-5-5-5-5-5-5-5-|
E-3-3-3-3-3-3-3-3-|-3-3-3-3-3-3-3-3-|

that's it, now workin on rest of album...
     
Добавлено: 28.08.2013
Другие материалы по этой песне:

Страница создана 06.03.2012
http://primanota.ru/graham-coxon/a-day-is-far-too-long-chords.htm
Привет, Гость.
Предлагаем пройти революционный курс по гитаре.
Подарок от PrimaNota.Ru, забирай!