PrimaNota.ru - самый крупный в мире бесплатный архив песенных текстов, аккордов, табулатур и нот


Graham Coxon - Me You, We Two - текст песни, таба, видео

Регистрация Запомнить меня
Войти через:  Facebook Google Twitter Vk Yandex Mail.ru

Graham Coxon - Me You, We Two - текст песни, таба, видео

Печатать
Просмотров: 120
Me You, We Two
Graham Coxon
The Sky Is Too High

Tabbed By: Saviano P.

   Me              you,            we               two...
e|--------------------------------------------------------------------|
B|--------------------------------------------------------------------|
G|-0-0-0-0-0-0-0-0-0-0-0-0-0-0-0-0-2-2-2-2-2-2-2-2-0-0-0-0-0-0-0-0----|
D|--------------------------------------------------------------------|
A|-2-2-2-2-2-2-2-2-2-2-2-2-2-2-2-2-4-4-4-4-4-4-4-4-2-2-2-2-2-2-2-2----|
E|--------------------------------------------------------------------|

   Trying to       begin
e|-----------------------------------|
B|-----------------------------------|
G|-2-2-2-2-2-2-2-2-0-0-0-0-0-0-0-0---|
D|-----------------------------------|
A|-4-4-4-4-4-4-4-4-2-2-2-2-2-2-2-2---|
E|-----------------------------------|

 Trying to       begin
e|------------------------------------------------------------|
B|-------------------------4-4-4-4-4-4-4-4-4-4-4-4-4-4-4-4----|
G|-2-2-2-2-2-2-2-2-0-0-0-0-4-4-4-4-4-4-4-4-4-4-4-4-4-4-4-4----|
D|------------------------------------------------------------|
A|-4-4-4-4-4-4-4-4-2-2-2-2------------------------------------|
E|-------------------------2-2-2-2-2-2-2-2-2-2-2-2-2-2-2-2----|

e|------------------|
B|------------------|
G|-0-0-0-0-0-0-2-2--|
D|------------------|
A|-2-2-2-2-2-2-4-4--|
E|------------------|
Добавлено: 22.05.2015
Другие материалы по этой песне:
  • Аккорды и текст

Страница создана 07.10.2014
http://primanota.ru/graham-coxon/me-you-we-two-chords.htm
Привет, Гость.
Предлагаем пройти революционный курс по гитаре.
Подарок от PrimaNota.Ru, забирай!