PrimaNota.ru - самый крупный в мире бесплатный архив песенных текстов, аккордов, табулатур и нот


Gossip - Yesterdays News - бас-таба, видео

Регистрация Запомнить меня
Войти через:  Facebook Google Twitter Vk Yandex Mail.ru

Gossip - Yesterdays News - бас-таба, видео

Печатать
Просмотров: 195
Уроки эстрадного вокала в Санкт-Петербурге
this is not perfect but i think this is about right
 if you've got any alternatives, let me know.
btw i did this by listening to the track from when they were live in liverpool so it may 
different from the actual track.
thanks:)

INTRO+VERSE

g|------------------------------------|
d|--5-5-5-5-5-5-5-5/2-2-2-2-2-2-2-2---|    }x6
a|-3-3-3-3-3-3-3-3---0-0-0-0-0-0-0-0-2|
e|------------------------------------|

CHORUS

G|--------------------------|
D|--------------------------|   }x8
A|-0-3--3-3-3-3-3-3-0-3-3-3-|
E|3-3-----------------------|

POST CHORUS

G|--------------------------------|
D|--------------------------------|  }x4
A|-----------------3-3-3-3-3-3-3h0|
E|-3-3-3-3-3-3-3-3----------------|

-repeat chorus

-repeat post chorus

-repeat intro+verse

END

| /  slide up
| \  slide down
| h  hammer-on
| p  pull-off
| ~  vibrato
| +  harmonic
| x  Mute note
===============================================================================
Добавлено: 21.02.2012
Другие материалы по этой песне:
  • Аккорды и текст

Страница создана 21.02.2012
http://primanota.ru/gossip/yesterdays-news-chords.htm
Привет, Гость.
Предлагаем пройти революционный курс по гитаре.
Подарок от PrimaNota.Ru, забирай!