PrimaNota.ru - самый крупный в мире бесплатный архив песенных текстов, аккордов, табулатур и нот


Gomez - See The World - текст песни, таба, видео

Регистрация Запомнить меня
Войти через:  Facebook Google Twitter Vk Yandex Mail.ru

Gomez - See The World - текст песни, таба, видео

Печатать
Просмотров: 440
Авторы музыки: Ian Ball, Olly Peacock, Tom Gray, Ben Ottewell, Paul Blackburn
Авторы текста: Ian Ball, Olly Peacock, Tom Gray, Ben Ottewell, Paul Blackburn
                      Gomez - See the World
tabbed by tinytom21

This is the intro riff, (and comes in at 1:12 again)

E|---4-----------0-4-----0-2---2-0---0-----0-2-0---0---|
B|---5-5---5---0-------0-------2---2---0h2-------2-----|
G|-------4---2-------2---------------------------------|    x6
D|-----------------------------------------------------|
A|---------------------------0-------------------------|
E|-0---------------------------------------------------|

then this at 0:30
E|-----------------------------------------|
B|-----------------------------------------|
G|--------1--------1--------2--------2-----|
D|-----2--------2--------2--------2--------|   x2
A|--2--------2--------0--------0-----------|
E|-----------------------------------------|

E|-----------------------------------------------------------------------------|
B|--------------------------------------------2--------2--------4--------4-----|
G|--------2--------2--------2--------2-----2--------2--------2--------2--------|
D|-----2--------2--------2--------2--------------------------------------------|
A|--0--------0--------------------------0--------0--------0--------0-----------|
E|--------------------2--------2-----------------------------------------------|

E|-----4--|-----2--|-----4--|-----2--|-----4--|-----2--|-----2--|-----2-----|
B|-----5--|-----2--|-----5--|-----2--|-----5--|-----2--|-----4--|-----2-----|
G|-----4--|-----2--|-----4--|-----2--|-----4--|-----2--|-----2--|-----2-----|
D|--------|--------|--------|--------|--------|--------|--------|-----------|
A|--------|--0-----|--------|--0-----|--------|--0-----|--------|-----------|
E|--0-----|--------|--0-----|--------|--0-----|--------|--2-----|--2--------|

Then it is 1:30, and so repeat the whole thing twice. then you can play the intro riff 
3:36 till the end.
hope ypu like, its not 100% but it sounds nice.
tinytom21
Добавлено: 14.03.2012
Другие материалы по этой песне:
  • Аккорды и текст

Страница создана 13.03.2012
http://primanota.ru/gomez/see-the-world-chords.htm
Привет, Гость.
Предлагаем пройти революционный курс по гитаре.
Подарок от PrimaNota.Ru, забирай!