PrimaNota.ru - самый крупный в мире бесплатный архив песенных текстов, аккордов, табулатур и нот


Gomez - Step Inside - текст песни, бас-таба, видео

Регистрация Запомнить меня
Войти через:  Facebook Google Twitter Vk Yandex Mail.ru

Gomez - Step Inside - текст песни, бас-таба, видео

Печатать
Просмотров: 166
===========
Step Inside (Bassline)
===========

Transcribed by Richard Averill.
E-mail me at nigelolympus@tinet.ie with corrections or comments.

|----------------------------------------------------|
|"Make No Sound" (The Gomez Guitar Tablature Archive)|
|----------------------------------------------------|
|         www.cyberia.ie/~shza/gomez.html            |
|----------------------------------------------------|

-----
Intro (10 bars)
-----

  Riff 1...                                            ... End Riff 1
1|-----------.---.-----------------|---------------------------------|
2|---------9-9---7-----------------|---------------------------------|
3|-.---.-------------7h8-9---------|---------9---------------9-------|
4|-7---7-----------------------7---|-8-----8-----8---9-----8---8-----|
   1   +   2   +   3   +   4   +     1   +   2   +   3   +   4   +

Repeat Riff 1.

  Riff 2...                                             ...End Riff 2
1|---------------------------------|---------------------------------|
2|---------------------------------|---------------------------------|
3|-------9---------------9---------|-------9---------------9---------|
4|-7-----------7---8-----------8---|-7-----------7---8-----------8---|
   1   +   2   +   3   +   4   +     1   +   2   +   3   +   4   +

  Riff 3...                                             ...End Riff 3
1|---------------.-----------------|---------------------------------|
2|---------9-----7-----------------|---------------7---9---9/10--9---|
3|-.---.---------------9---8---7---|---------7h8h9-------------------|
4|-7---7---------------------------|-8---8---------------------------|
   1   +   2   +   3   +   4   +     1   +   2   +   3   +   4   +

  Riff 4...                                              ...End Riff 4
1|---------------.-----------------|----------------------------------|
2|---------9-----7-----------------|-----------------9/10\9-----------|
3|-.---.---------------9---8---7---|--------------------------9/10----|
4|-7---7---------------------------|-8---8----------------------------|
   1   +   2   +   3   +   4   +     1   +   2   +   3    +   4   +

-------
Verse 1 (16 bars)
-------

Repeat Riff 3 seven times then Riff 4 once.

------
Chorus (12 bars)
------

Repeat Riff 3 four times, then Riff 1 twice.

-------
Verse 2 (16 bars)
-------

Same as Verse 1.

------
Chorus (12 bars)
------

Repeat Riff 3 four times, then Riff 2 twice.

------
Bridge (12 bars)
------

Repeat Riff 2 four times then Riff 3 once, then Riff 4.

-------
Verse 3 (16 bars)
-------

Play Riff 3, then:

1|---------------.-----------------|---------------------------------|
2|---------9-----7-----------------|-------------.-------------------|
3|-.---.---------------9---8---7---|---------7h8h9-------------------|
4|-7---7---------------------------|-8---8---------------------------|
   1   +   2   +   3   +   4   +     1   +   2   +   3   +   4   +

Repeat Riff 3 five times, then Riff 4.

------
Ending (16 bars)
------

Repeat Riff 3 seven times, then Riff 4, and end with:

1|---------------------------------|---------------------------------||
2|---------------------------------|---------------------------------||
3|---------------------------------|---------------------------------||
4|-4-------------------------------|---------------------------------||
   1   +   2   +   3   +   4   +     1   +   2   +   3   +   4   +
Добавлено: 05.05.2012
Другие материалы по этой песне:
  • Аккорды и текст

Страница создана 26.03.2012
http://primanota.ru/gomez/step-inside-chords.htm
Привет, Гость.
Предлагаем пройти революционный курс по гитаре.
Подарок от PrimaNota.Ru, забирай!