PrimaNota.ru - самый крупный в мире бесплатный архив песенных текстов, аккордов, табулатур и нот


Gomez - Revolutionary Kind - текст песни, бас-таба, видео

Регистрация Запомнить меня
Войти через:  Facebook Google Twitter Vk Yandex Mail.ru

Gomez - Revolutionary Kind - текст песни, бас-таба, видео

Печатать
Просмотров: 110
Авторы музыки: Ian Ball, Olly Peacock, Tom Gray, Ben Ottewell, Paul Blackburn
Авторы текста: Ian Ball, Olly Peacock, Tom Gray, Ben Ottewell, Paul Blackburn
-----------------------------------------------------------------------------
			     Hangover (Liquid Skin) - Gomez
-----------------------------------------------------------------------------

Tabbed By:  ChrisMill5
e-mail:  christian.h.mills@gmail.com

To mimic the sound of Ollie's processed kick
(1:03)
G|--------------------------------------------------------------------------|
D|--------------------------------------------------------------------------|
A|--------------------------------------------------------------------------|
E|--------------------------------------------------------------------------|
B|--5-5-5-5-5-5-5-5-5-5-5-5-5-5-5-5-5-5-5-5-5-5-5-5-5-5-5-5-5-5-5-5-5-5-5-5-|

(1:41)
G|--------------------------------------------------------------------------|
D|--------------------------------------------------------------------------|
A|--------------------------------------------------------------------------|
E|--7--7--7--7--------------------------------------------------------------|
B|--------------5--5--5--5--5--5--5--5--5-----------------------------------|

(2:02)
G|--------------------------------------------------------------------------|
D|--------------------------------------------------------------------------|
A|--------------------------------------------------------------------------|
E|--------------4-----------------------------------------------------------|
B|--5-5-3-3-5-5---3-5-5-3-3-5-5-4-3-----------------------------------------|

(2:36)
G|--------------------------------------------------------------------------|
D|--------------------------------------------------------------------------|
A|--------------------------------------------------------------------------|
E|--2--3--4/5---------------------------------------------------------------|
B|--------------------------------------------------------------------------|

(2:42)
G|--------------------------------------------------------------------------|
D|--------------------------------------------------------------------------|
A|--------------------------------------------------------------------------|
E|--------4-----------------------------------------------------------------|
B|--5-5-5---5-5-3-4---------------------------------------------------------|

(3:08)
G|--------------------------------------------------------------------------|
D|--------------------------------------------------------------------------|
A|--------------------------------------------------------------------------|
E|--2--3--4/5---------------------------------------------------------------|
B|--------------------------------------------------------------------------|

(3:14)
G|--------------------------------------------------------------------------|
D|--------------------------------------------------------------------------|
A|--------------------------------------------------------------------------|
E|--------4---------------4---------9----9-7----7---------------------------|
B|--5-5-5---5-5-3-4-5-5-5---5-5-3-4-----------------------------------------|

Repeat slight variations of this until the end. Bass cuts out at 3:50

| /  slide up
| \  slide down
| h  hammer-on
| p  pull-off
| ~  vibrato
| +  harmonic
| x  Mute note
=============================================================================
Добавлено: 30.03.2012
Другие материалы по этой песне:

Страница создана 30.03.2012
http://primanota.ru/gomez/revolutionary-kind-chords.htm
Привет, Гость.
Предлагаем пройти революционный курс по гитаре.
Подарок от PrimaNota.Ru, забирай!