PrimaNota.ru - самый крупный в мире бесплатный архив песенных текстов, аккордов, табулатур и нот


Gomez - Hangover - текст песни, таба, бас-таба, видео

Регистрация Запомнить меня
Войти через:  Facebook Google Twitter Vk Yandex Mail.ru

Gomez - Hangover - текст песни, таба, бас-таба, видео

Печатать
Просмотров: 178
Уроки эстрадного вокала в Санкт-Петербурге
Авторы музыки: Ian Ball, Olly Peacock, Tom Gray, Ben Ottewell, Matthew K. Turner, Paul Blackburn
Авторы текста: Ian Ball, Olly Peacock, Tom Gray, Ben Ottewell, Matthew K. Turner, Paul Blackburn
-------------------------------------------------------------------------------
                             HANGOVER - Gomez
-------------------------------------------------------------------------------
Tabbed by: 100%guitarmad
Email: edmedmoped@yahoo.co.uk

Tuning: Half-Step Down


---------
Main Riff
---------

Played on the CD using a guitar-sitar
made out of a Yamaha 12-string by Ben.

(0:24)

   Eb
1|----------------------------|
2|-------5---------5-5/9\-----|
3|-------4---4----------------|
4|-2--------------------------|
5|----------------------------|
6|----------------------------|
   1 + . 2 + . 3 + . 4    + .

-----------
Chorus Riff
-----------

(0:39)

Electric guitar with a tremelo effect:

   Eb
1|--------------------------|-------------------------12-|
2|--------------------------|-------------------------12-|
3|--------------------------|-----------------12h13------|
4|--------------------------|-----------------14---------|
5|--------------------------|----------------------------|
6|--------------------------|----------------------------|
   1 + . 2 + . 3 + . 4 + .    1 + . 2 + . 3 + .  4  + .

   Be          my             hangover girl...

---------
Interlude
---------

Play this along with another guitar improvising on
the Eb scale (on the CD it's actually a
pizzicato Chinese string section):

(1:55)

1|/12--------12------------|-----------12------------| \
2|-------0---------0-------|-------12----------------|  |
3|-------------------12----|-12-h13---------b8r7---7-|  |
4|-------------------------|-------------------------|  |
5|-------------------------|-------------------------|  |
6|-------------------------|-------------------------|  |
   1 + . 2 + . 3 + . 4 + .   1 + . 2 + . 3 + . 4 + .    |
                                                        | x4
1|-------------------------|-----------------0-7--0--|  |
2|-------------------------|-------------------------|  |
3|-7-----------------------|-------------------------|  |
4|-----9-7---b7r---5-------|-------------------------|  |
5|-------------------7-----|-5-----5-----7-----------|  |
6|-------------------------|-------------------------|  |
   1 + . 2 + . 3 + . 4 + .   1 + . 2 + . 3 + . 4 + .   /

------
Ending
------

Played on an acoustic guitar.

(2:50)

1|-------0---0-----0-----0-|-0-----0-----0-----0-----|
2|-------0---0-----0-----0-|-0-----0-----0-----0-----|
3|-------4---4-----4-4---4-|-4-----4-----2-----2-----|
4|-------2-----------2-----|-6-----6-----4-----4-----|
5|-2-----------------2-----|-------------------------|
6|-0-----------------------|-------------------------|
   1 + . 2 + . 3 + . 4 + .   1 + . 2 + . 3 + . 4 + .

         It's gonna rain when I get home...

1|-------0---0-----0-----0-|-------0---0-----0-----0-|
2|-------0---0-----0-----0-|-------0---0-----0-----0-|
3|-------4---4-----4-4---4-|-------4---4-----4-4---4-|
4|-------2-----------2-----|-------2-----------2-----|
5|-2-----------------2-----|-2-----------------2-----|
6|-0-----------------------|-0-----------------------|
   1 + . 2 + . 3 + . 4 + .   1 + . 2 + . 3 + . 4 + .

(3:19)

1|-----------0---||
2|---------0-----||
3|-------1-------||
4|-----2---------||
5|---2-----------||
6|-0-------------||

Добавлено: 07.05.2012
Другие материалы по этой песне:
  • Аккорды и текст

Страница создана 23.02.2012
http://primanota.ru/gomez/hangover-chords.htm
Привет, Гость.
Предлагаем пройти революционный курс по гитаре.
Подарок от PrimaNota.Ru, забирай!