PrimaNota.ru - самый крупный в мире бесплатный архив песенных текстов, аккордов, табулатур и нот


Gomez - Here Comes The Breeze - текст песни, таба, видео

Регистрация Запомнить меня
Войти через:  Facebook Google Twitter Vk Yandex Mail.ru

Gomez - Here Comes The Breeze - текст песни, таба, видео

Печатать
Просмотров: 150
Авторы музыки: Ian Ball, Olly Peacock, Tom Gray, Ben Ottewell, Paul Blackburn
Авторы текста: Ian Ball, Olly Peacock, Tom Gray, Ben Ottewell, Paul Blackburn
----------------------------------------------------------------------------
			HERE COMES THE BREEZE - Gomez
----------------------------------------------------------------------------
Tabbed by: KarlosSultana
  Email:   KarlBishop@gmail.com

This tab was adapted from versions by Trent Adams and Richard Averill which
you can find all over the web.

Amendments are mainly to the 'Breakdown' and ending but there's some other
small changes as well. Strum patterns are just a guide, I haven't made a
great effort at listening for exactly what Gomez do.

I've added lyrics as well 'cause I hate when people leave them out but mine
differ slightly from those found on lyrics websites (I think they're right
but people will probably dispute my take on the "get out our heads/get outta
here" line!)

 /  slide up
 h  hammer-on
 x  Mute note

=====
INTRO
=====

  Guitar 1 - Intro played once before Guitar 2 comes in
             then played once more before the lyrics

                 d u d u   u   u d u         d u d   d   u   d   u u
  e|-----|-------2-2-2-2---2---2-2-2-----|---0-0-0---0---0---0---0-0-----|
  B|-----|-------2-2-2-2---2---2-2-2-----|---0-0-0---0---0---0---0-0-----|
  G|-----|-------4-4-4-4---4---4-4-4-----|---2-2-2---2---2---2---2-2-----|
  D|-----|-------4-4-4-4---4---4-4-4-----0h2-2-2-2---2---2---2---2-2-----|
  A|-----0h2-------------------------0h2-|-------------------------------|
  E|-0h2-|-------------------------------|---------------------------0h2-|

                 d   d u   u   u d u         d u d   d   u   u   ud
      e|---------2---2-2---2---2-2-2-----|---0-0-0---0---0---0---00------|
      B|---------2---2-2---2---2-2-2-----|---0-0-0---0---0---0---00------|
      G|---------4---4-4---4---4-4-4-----|---2-2-2---2---2---2---22------|
      D|---------4---4-4---4---4-4-4-----0h2-2-2-2---2---2---2---22------|
      A|-0h2-------------------------0h2-|-------------------------------|
      E|---------------------------------|---------------------------0h2-|



  Guitar 2 - Slide Guitar
      e|---------------------------------|--------------------------------|
      B|7-/--12---------------------14---|--5-----------------------------|


=====
VERSE
=====

                 d u d u   u   u d u         d u d   d   u   d   u u
  e|-----|-------2-2-2-2---2---2-2-2-----|---0-0-0---0---0---0---0-0-----|
  B|-----|-------2-2-2-2---2---2-2-2-----|---0-0-0---0---0---0---0-0-----|
  G|-----|-------4-4-4-4---4---4-4-4-----|---2-2-2---2---2---2---2-2-----|
  D|-----|-------4-4-4-4---4---4-4-4-----0h2-2-2-2---2---2---2---2-2-----|
  A|-----0h2-------------------------0h2-|-------------------------------|
  E|-0h2-|-------------------------------|---------------------------0h2-|
         Here come the breeze,                            come on blow me...
         Here come the air,                               come on blow me...

                 d   d u   u   u d u         d u d   d   u   u   ud
      e|---------2---2-2---2---2-2-2-----|---0-0-0---0---0---0---00------|
      B|---------2---2-2---2---2-2-2-----|---0-0-0---0---0---0---00------|
      G|---------4---4-4---4---4-4-4-----|---2-2-2---2---2---2---22------|
      D|---------4---4-4---4---4-4-4-----0h2-2-2-2---2---2---2---22------|
      A|-0h2-------------------------0h2-|-------------------------------|
      E|---------------------------------|---------------------------0h2-|
     ...up
     ...up
                 d u d u   u   u d u         d u d   d   u   d   u u
      e|---------2-2-2-2---2---2-2-2-----|---0-0-0---0---0---0---0-0-----|
      B|---------2-2-2-2---2---2-2-2-----|---0-0-0---0---0---0---0-0-----|
      G|---------4-4-4-4---4---4-4-4-----|---2-2-2---2---2---2---2-2-----|
      D|---------4-4-4-4---4---4-4-4-----0h2-2-2-2---2---2---2---2-2-----|
      A|-0h2-------------------------0h2-|-------------------------------|
      E|---------------------------------|---------------------------0h2-|
         Planting the seed,                               come on sew me...
         Harness the fair,                                come on grow me...

                 d   d u   u   u d u         d u d   d   u   u   ud
      e|---------2---2-2---2---2-2-2-----|---0-0-0---0---0---0---00------|
      B|---------2---2-2---2---2-2-2-----|---0-0-0---0---0---0---00------|
      G|---------4---4-4---4---4-4-4-----|---2-2-2---2---2---2---22------|
      D|---------4---4-4---4---4-4-4-----0h2-2-2-2---2---2---2---22------|
      A|-0h2-------------------------0h2-|-------------------------------|
      E|---------------------------------|---------------------------0h2-|
     ...up
     ...up

======
BRIDGE
======

          d u d u d       d u d u d         d u d u d       d u d u d
      e|--2-2-2-2-2---x-x-4-4-4-4-4---x-x-|-5-5-5-5-5---x-x-4-4-4-4-4-x-x-|
      B|--2-2-2-2-2---x-x-4-4-4-4-4---x-x-|-5-5-5-5-5---x-x-4-4-4-4-4-x-x-|
      G|--2-2-2-2-2---x-x-4-4-4-4-4---x-x-|-6-6-6-6-6---x-x-4-4-4-4-4-x-x-|
      D|--4-4-4-4-4---x-x-6-6-6-6-6---x-x-|-7-7-7-7-7---x-x-6-6-6-6-6-x-x-|
      A|--4-4-4-4-4---x-x-6-6-6-6-6---x-x-|-7-7-7-7-7---x-x-6-6-6-6-6-x-x-|
      E|--2-2-2-2-2---x-x-4-4-4-4-4---x-x-|-5-5-5-5-5---x-x-4-4-4-4-4-x-x-|
          Reeling,    the feeling,          making our    way through the...
          Staring   at nothing   'cause   I can't make  out what it...

            d u d u d                u       d u d u d                u
      e|----2-2-2-2-2----4---2-------2-x--|--2-2-2-2-2----4---2-------2-x-|
      B|----2-2-2-2-2------------2---2-x--|--2-2-2-2-2------------2---2-x-|
      G|----2-2-2-2-2----------------2-x--|--2-2-2-2-2----------------2-x-|
      D|----4-4-4-4-4---------------------|--4-4-4-4-4--------------------|
      A|----4-4-4-4-4---------------------|--4-4-4-4-4--------------------|
      E|----2-2-2-2-2---------------------|--2-2-2-2-2--------------------|
         ...storm
         ...is

          d u d u d       d u d u d         d u d u d       d u d u d
      e|--2-2-2-2-2---x-x-4-4-4-4-4---x-x-|-5-5-5-5-5---x-x-4-4-4-4-4-x-x-|
      B|--2-2-2-2-2---x-x-4-4-4-4-4---x-x-|-5-5-5-5-5---x-x-4-4-4-4-4-x-x-|
      G|--2-2-2-2-2---x-x-4-4-4-4-4---x-x-|-6-6-6-6-6---x-x-4-4-4-4-4-x-x-|
      D|--4-4-4-4-4---x-x-6-6-6-6-6---x-x-|-7-7-7-7-7---x-x-6-6-6-6-6-x-x-|
      A|--4-4-4-4-4---x-x-6-6-6-6-6---x-x-|-7-7-7-7-7---x-x-6-6-6-6-6-x-x-|
      E|--2-2-2-2-2---x-x-4-4-4-4-4---x-x-|-5-5-5-5-5---x-x-4-4-4-4-4-x-x-|
          We've been    deceiving,          making our    way through the...
          Searching   for something but    I just don't  know what it...

            d u d u d                       d       d         d   d   d
      e|----2-2-2-2-2----4---2------------|-5-------5---x-x---8---8---8---|
      B|----2-2-2-2-2------------2----/---|-5-------5---x-x---8---8---8---|
      G|----2-2-2-2-2---------------------|-6-------6---x-x---9---9---9---|
      D|----4-4-4-4-4---------------------|-7-------7---x-x---10--10--10--|
      A|----4-4-4-4-4---------------------|-7-------7---x-x---10--10--10--|
      E|----2-2-2-2-2---------------------|-5-------5---x-x---8---8---8---|
         ...stor - or - orm                 All  we needs  a  little  water
         ...is                              All  we needs  a  little  mortar

======
CHORUS
======

          d   d   d       u   u   d   d       d   d   d    u  u  d   d u
      e|--7---7---7---x-x-7---7---7---7---|---0---0---0----0--0--0---0-0--|
      B|--7---7---7---x-x-7---7---7---7---|---0---0---0----0--0--0---0-0--|
      G|--8---8---8---x-x-8---8---8---8---|---1---1---1----1--1--1---1-1--|
      D|--9---9---9---x-x-9---9---9---9---|---2---2---2----2--2--2---2-2--|
      A|--9---9---9---x-x-9---9---9---9---|---2---2---2----2--2--2---2-2--|
      E|--7---7---7---x-x-7---7---7---7---|---0---0---0----0--0--0---0-0--|
         Send a little message to ya          Gonna get out our hair

          d   d   d       u   u   d   d       d   d   d    u  u  d   d u
      e|--7---7---7---x-x-7---7---7---7---|---0---0---0----0--0--0---0-0--|
      B|--7---7---7---x-x-7---7---7---7---|---0---0---0----0--0--0---0-0--|
      G|--8---8---8---x-x-8---8---8---8---|---1---1---1----1--1--1---1-1--|
      D|--9---9---9---x-x-9---9---9---9---|---2---2---2----2--2--2---2-2--|
      A|--9---9---9---x-x-9---9---9---9---|---2---2---2----2--2--2---2-2--|
      E|--7---7---7---x-x-7---7---7---7---|---0---0---0----0--0--0---0-0--|

          d   d   d       u   u   d   d       d   d   d    u  u  d   d u
      e|--7---7---7---x-x-7---7---7---7---|---0---0---0----0--0--0---0-0--|
      B|--7---7---7---x-x-7---7---7---7---|---0---0---0----0--0--0---0-0--|
      G|--8---8---8---x-x-8---8---8---8---|---1---1---1----1--1--1---1-1--|
      D|--9---9---9---x-x-9---9---9---9---|---2---2---2----2--2--2---2-2--|
      A|--9---9---9---x-x-9---9---9---9---|---2---2---2----2--2--2---2-2--|
      E|--7---7---7---x-x-7---7---7---7---|---0---0---0----0--0--0---0-0--|
         Send a little message to ya          Gonna get out our hair

          d   d   d       u   u   d   d       d       d       d  d
      e|--7---7---7---x-x-7---7---7---7---|---0-------0-------0--0--------|
      B|--7---7---7---x-x-7---7---7---7---|---0-------0-------0--0--------|
      G|--8---8---8---x-x-8---8---8---8---|---1-------1-------1--1--------|
      D|--9---9---9---x-x-9---9---9---9---|---2-------2-------2--2--------|
      A|--9---9---9---x-x-9---9---9---9---|---2-------2-------2--2--------|
      E|--7---7---7---x-x-7---7---7---7---|---0-------0-------0--0--------|
                                             ^
                                             |_ 2nd time this bit's
                                          extended to 8 or 9 even spaced
                                               beats on the E chord

=========
BREAKDOWN
=========
Tip:
for these slides you should release pressure as you move up the neck, let go
 about 5th to 7th fret then switch to a different finger for the note on 12
       
      A|---------------------------------|---------------------------------|
      E|--0--0--3-3---/----12---7---10---|--0--0--3-3---/----12---7---10---|

      A|---------------------------------|---------------------------------|
      E|--0--0--3-3---/----12---7---10---|--0--0--3-3---/----12---7---10---|



      G|---------------------------------|---------------------------------|
      D|-------------2-------0-------0---|-------------2-----0-------0-----|
      A|-------------------------2-------|-----------------------2-------2-|
      E|-0-----4-------------------------|-0-----4-------------------------|

      G|---------------------------------|---------------------------------|
      D|-------------2-------0-------0---|-------------2-----0-------0-----|
      A|-------------------------2-------|-----------------------2-------2-|
      E|-0-----4-------------------------|-0-----4-------------------------|
                                                                     Well...

      G|---------------------------------|---------------------------------|
      D|-------------2-------0-------0---|-------------2-----0-------0-----|
      A|-------------------------2-------|-----------------------2-------2-|
      E|-0-----4-------------------------|-0-----4-------------------------|
    ...come on in                        Come on in  and lay     me  down...

      G|---------------------------------|---------------------------------|
      D|-------------2-------0-------0---|-------------2-----0-------0-----|
      A|-------------------------2-------|-----------------------2-------2-|
      E|-0-----4-------------------------|-0-----4-------------------------|
       ...now                                                      And re...

      G|---------------------------------|--------------2-------1----------|
      D|-------------2-------0-------0---|--------------------------4---2--|
      A|-------------------------2-------|-0-----4-------------------------|
      E|-0-----4-------------------------|---------------------------------|
      ...lax                  'Cause the world will    collapse    with you

      G|---------------------------------|--------------2-------1----------|
      D|-------------2-------0-------0---|--------------------------4---2--|
      A|-------------------------2-------|-0-----4-------------------------|
      E|-0-----4-------------------------|---------------------------------|
                                Turn your  red  light     in to     blue

      G|-------------4-----2-------2-----|---------------------------------|
      D|-------4---------------4-------4-|-0-----4-------------------------|
      A|-2-------------------------------|-------------4-------0-----------|
      E|---------------------------------|-------------------------4---2---|
                    Why  do   you   keep   Runnin   around    like that

      G|---------------------------------|---------------------------------|
      D|-------------2-------0-------0---|-------------2-----0-------0-----|
      A|-------------------------2-------|-----------------------2-------2-|
      E|-0-----4-------------------------|-0-----4-------------------------|
                                                                      Sit...

      G|---------------------------------|--------------2-------1----------|
      D|-------------2-------0-------0---|--------------------------4---2--|
      A|-------------------------2-------|-0-----4-------------------------|
      E|-0-----4-------------------------|---------------------------------|
     ...back                        'Cause this is gonna take      a while

      G|---------------------------------|--------------2-------1----------|
      D|-------------2-------0-------0---|--------------------------4---2--|
      A|-------------------------2-------|-0-----4-------------------------|
      E|-0-----4-------------------------|---------------------------------|
                              There's no shame in going out of      style

      G|-------------4-----2-------2-----|---------------------------------|
      D|-------4---------------4-------4-|-0-----4-------------------------|
      A|-2-------------------------------|-------------4-------0-----------|
      E|---------------------------------|-------------------------4---2---|
                    Why  do   you   keep   Runnin   around    like that


*Break here and then the next 4 bars are sort of muted:

      G|---------------------------------|---------------------------------|
      D|-------------2-------0-------0---|-------------2-----0-------0-----|
      A|-------------------------2-------|-----------------------2-------2-|
      E|-0-----4-------------------------|-0-----4-------------------------|

      G|---------------------------------|---------------------------------|
      D|-------------2-------0-------0---|-------------2-----0-------0-----|
      A|-------------------------2-------|-----------------------2-------2-|
      E|-0-----4-------------------------|-0-----4-------------------------|

*Then this last bit comes in slightly over the top of the previous bar:

 e|---------|----------------------------|----------------------------|
 B|---3-3-3-|--3/-5--5--5------5-/--7-7--|------3----5---5------3-3---|
 G|---2-2-2-|--2/-4--4--4------4-/--6-6--|------2----4---4------2-2---|
 D|---0-0-0-|--0/-2--2--2------2-/--4-4--|------0----2---2------0-0---|
 A|---------|----------------------------|----------------------------|
 E|---------|----------------------------|----------------------------|
 
           e|----------------------------|----------------------------|
           B|--3/-5--5--5------5-/--7-7--|------3----5---5------3-3---|
           G|--2/-4--4--4------4-/--6-6--|------2----4---4------2-2---|
           D|--0/-2--2--2------2-/--4-4--|------0----2---2------0-0---|
           A|----------------------------|----------------------------|
           E|----------------------------|----------------------------|

	   e|----------------------------|----------------------------|
           B|--3/-5--5--5------5-/--7-7--|------3----5---5------3-3---|
           G|--2/-4--4--4------4-/--6-6--|------2----4---4------2-2---|
           D|--0/-2--2--2------2-/--4-4--|------0----2---2------0-0---|
           A|----------------------------|----------------------------|
           E|----------------------------|----------------------------|

           e|----------------------------|----------------------------|
           B|--3/-5--5--5------5-/--7-7--|------3----5---5------3-3---|
           G|--2/-4--4--4------4-/--6-6--|------2----4---4------2-2---|
           D|--0/-2--2--2------2-/--4-4--|------0----2---2------0-0---|
           A|----------------------------|----------------------------|
           E|----------------------------|----------------------------|

           e|----------------------------|----------------------------|
           B|-(5)------------------------|--(2)-----------------3-3---|
           G|-(4)------------------------|--(2)-----------------2-2---|
           D|-(2)------------------------|--(0)-----------------0-0---|
           A|----------------------------|----------------------------|
           E|----------------------------|----------------------------|
             Send a little message to ya,   Gonna get out our hair

           e|----------------------------|----------------------------|
           B|--3/-5--5--5------5-/--7-7--|------3----5---5------3-3---|
           G|--2/-4--4--4------4-/--6-6--|------2----4---4------2-2---|
           D|--0/-2--2--2------2-/--4-4--|------0----2---2------0-0---|
           A|----------------------------|----------------------------|
           E|----------------------------|----------------------------|

           e|----------------------------|----------------------------|
           B|-(5)------------------------|--(2)-----------------3-3---|
           G|-(4)------------------------|--(2)-----------------2-2---|
           D|-(2)------------------------|--(0)-----------------0-0---|
           A|----------------------------|----------------------------|
           E|----------------------------|----------------------------|
             Send a little message to ya,   Gonna get out our hair

           e|----------------------------|----------------------------|
           B|--3/-5--5--5------5-/--7-7--|------3----5---5------3-3---|
           G|--2/-4--4--4------4-/--6-6--|------2----4---4------2-2---|
           D|--0/-2--2--2------2-/--4-4--|------0----2---2------0-0---|
           A|----------------------------|----------------------------|
           E|----------------------------|----------------------------|

           e|----------------------------|----------------------------|
           B|--5-------------------------|---2------------------3-3---|
           G|--4-------------------------|---2------------------2-2---|
           D|--2-------------------------|---0------------------0-0---|
           A|----------------------------|----------------------------|
           E|----------------------------|----------------------------|
             Send a little message to ya,   Gonna get out our hair

           e|----------------------------|----------------------------|
           B|--3/-5--5--5------5-/--7-7--|------3----5---5------3-3---|
           G|--2/-4--4--4------4-/--6-6--|------2----4---4------2-2---|
           D|--0/-2--2--2------2-/--4-4--|------0----2---2------0-0---|
           A|----------------------------|----------------------------|
           E|----------------------------|----------------------------|

           e|----------------------------|----------------------------|
           B|--5-------------------------|---2----------------5-------|
           G|--4-------------------------|---2----------------4-------|
           D|--2-------------------------|---0----------------6-------|
           A|----------------------------|----------------------------|
           E|----------------------------|----------------------------|
             Send a little message to ya,   Gonna get out our hair

           A|-----------------7----------|
           E|-----0-----4----------------|

============================================================================
Добавлено: 05.07.2012
Другие материалы по этой песне:
  • Аккорды и текст

Страница создана 12.04.2012
http://primanota.ru/gomez/here-comes-the-breeze-chords.htm
Привет, Гость.
Предлагаем пройти революционный курс по гитаре.
Подарок от PrimaNota.Ru, забирай!