PrimaNota.ru - самый крупный в мире бесплатный архив песенных текстов, аккордов, табулатур и нот


Gojira - Pain Is A Master - таба, видео

Регистрация Запомнить меня
Войти через:  Facebook Google Twitter Vk Yandex Mail.ru

Gojira - Pain Is A Master - таба, видео

Печатать
Просмотров: 89
Авторы музыки: Mario Duplantier, Joe Duplantier
Авторы текста: Joe Duplantier
*******************************************************************
                         Gojira - Pain is a Master
*******************************************************************

Tabbed by:  Juan Bautista Díaz
E-mail: bautista.10@hotmail.com, pao_alvarado11@hotmail.com
Tuning: D Tuning (D G C F A D)



-----------------------------------------------------------------------------------------------|
-----------------------------------------------------------------------------------------------|
Guitar 1

D|----------------------------------------------------------------------------|
A|----------------------------------------------------------------------------|
F|-------------10--11---14----16----------------------------------------------|
C|------11-----x---x----x------x----------------------------------------------|
G|-------x-----8---9----12-----14---------------------------------------------|
D|-------9--------------------------------------------------------------------|

Guitar 2
D|----------------------------------------------------------------------------|
A|----------------------------------------------------------------------------|
F|-------------10---11----14-----10-------------------------------------------|
C|------11-----x-----x-----x-----x--------------------------------------------|
G|-------x-----8----9-----12------8-------------------------------------------|
D|-------9--------------------------------------------------------------------|


-----------------------------------------------------------------------------------------------|
-----------------------------------------------------------------------------------------------|

Both guitars

D|------------------------------------------------x---------------------------|
A|------------------------------------------------x---------------------------|
F|------------------------------------------------x---------------------------|
C|-----222222222-------------222222222------------x---------------------------|
G|-----333333333-------------333333333------------x---------------------------|
D|-----000000000--2b---------000000000----00------x---------------------------|          
 x4
                                         P.M.     A.H


-----------------------------------------------------------------------------------------------|
-----------------------------------------------------------------------------------------------|

Guitar 1

D|------------------------------------------x---------------------------------|
A|------------------------------------------x---------------------------------|
F|------------------------------------------x---------------------------------|
C|------------------------------------------x---------------------------------|
G|------------------------------------------x---------------------------------|
D|----000000000000000000-111111111111--00---x---------------------------------| x4
        -             P.M              -   A.H.

Guitar 2

D|----------------------------------------------------------------------------|
A|----------------------------------------------------------------------------|
F|----------------------------------------------------------------------------|
C|----------------------------------------------------------------------------|
G|----------------------------------------------------------------------------|
D|----000000000000000000-111111111111-----------------------------------------|  x4

         P.M.

-----------------------------------------------------------------------------------------------|
-----------------------------------------------------------------------------------------------|

Guitar 1

D|----------------------------------------------------------------------------|
A|----------------------------------------------------------------------------|
F|----------------------------------------------------------------------------|
C|----------------------------------------------------------------------------|
G|-------------------777777776666666666666666---------------------------------|
D|-------------------------------------------88888888-------------------------|

D|----------------------------------------------------------------------------|
A|----------------------------------------------------------------------------|
F|----------------------------------------------------------------------------|
C|----------------------------------------------------------------------------|
G|-------------------777799996666666666666666---------------------------------|
D|-------------------------------------------88888888-------------------------|

                 x2

Guitar 2

D|----------------------------------------------------------------------------|
A|----------------------------------------------------------------------------|
F|----------------------------------------------------------------------------|
C|----------------------------------------------------------------------------|
G|----------------------------------------------------------------------------|
D|----000000000000000000-111111111111-----------------------------------------|

              P.M.                           x4

-----------------------------------------------------------------------------------------------|
-----------------------------------------------------------------------------------------------|

Guitar 1/2
D|--------------------------------------------------X-------------------------|
A|--------------------------------------------------X-------------------------|
F|--------------------------------------------------X-------------------------|
C|-----222222222-------------222222222--------------X-------------------------|
G|-----333333333-------------333333333--------------X-------------------------|
D|-----000000000--2b---------000000000----00--------X-------------------------|   x2
                                        P.M.       A.H

-----------------------------------------------------------------------------------------------|
-----------------------------------------------------------------------------------------------|

Guitar 1

D|----------------------------------------------------------------------------|
A|----------------------------------------------------------------------------|
F|----------------------------------------------------------------------------|
C|----------------------------------------------------------------------------|
G|----------------------------------------------------------------------------|
D|----000000000000000000-111111111111-----------------------------------------|

              P.M.

-----------------------------------------------------------------------------------------------|
-----------------------------------------------------------------------------------------------|

Guitar 1

D|----------------------------------------------------------------------------|
A|----------------------------------------------------------------------------|
F|----------------------------------------------------------------------------|
C|----------------------------------------------------------------------------|
G|-------------------777777776666666666666666---------------------------------|
D|-------------------------------------------88888888-------------------------|

D|----------------------------------------------------------------------------|
A|----------------------------------------------------------------------------|
F|----------------------------------------------------------------------------|
C|----------------------------------------------------------------------------|
G|-------------------777799996666666666666666---------------------------------|
D|-------------------------------------------88888888-------------------------|
              x2

Guitar 2

D|----------------------------------------------------------------------------|
A|----------------------------------------------------------------------------|
F|----------------------------------------------------------------------------|
C|----------------------------------------------------------------------------|
G|----------------------------------------------------------------------------|
D|----000000000000000000-111111111111-----------------------------------------|

               P.M.                        x4


-----------------------------------------------------------------------------------------------|
-----------------------------------------------------------------------------------------------|

Guitar 1/2
D|--------------------------------------------------X-------------------------|
A|--------------------------------------------------X-------------------------|
F|--------------------------------------------------X-------------------------|
C|-----222222222-------------222222222--------------X-------------------------|
G|-----333333333-------------333333333--------------X-------------------------|
D|-----000000000--2b---------000000000----00--------X-------------------------|
                                          P.M.     A.H

-----------------------------------------------------------------------------------------------|
-----------------------------------------------------------------------------------------------|

Guitar 1

D|----------------------------------------------------------------------------|
A|----------------------------------------------------------------------------|
F|-------------10--11---14----16----------------------------------------------|
C|------11----x----x-----x------x---------------------------------------------|
G|-------x-----8---9----12-----14---------------------------------------------|
D|-------9--------------------------------------------------------------------|

Guitar 2

D|----------------------------------------------------------------------------|
A|----------------------------------------------------------------------------|
F|-------------10--11---14-----10---------------------------------------------|
C|------11----x----x-----x------x---------------------------------------------|
G|-------x-----8---9----12-----8----------------------------------------------|
D|-------9--------------------------------------------------------------------|

-----------------------------------------------------------------------------------------------|
-----------------------------------------------------------------------------------------------|


Both guitars

D|----------------------------------------------------------------------------|
A|----------------------------------------------------------------------------|
F|----------------------------------------------------------------------------|
C|----------------------------------------------------------------------------|
G|----------------------------------------------------------------------------|
D|----5-0-55-0-5-0-55-0-5-0-5-0-55-0-5-0-55-0---------------------------------|


D|----------------------------------------------------------------------------|
A|----------------------------------------------------------------------------|
F|----------------------------------------------------------------------------|
C|----------------------------------------------------------------------------|
G|----------------------------------------------------------------------------|
D|----4-0-44-0-4-0-4-0-4-0-44-0-4-0-44-0-4-0-4-0-44-0-------------------------|

 P.M.

-----------------------------------------------------------------------------------------------|
-----------------------------------------------------------------------------------------------|

Guitar 1

D|----------------------------------------------------------------------------|
A|----------------------------------------------------------------------------|
F|-------------10--11---14----16----------------------------------------------|
C|------11----x----x-----x------x---------------------------------------------|
G|-------x-----8---9----12-----14---------------------------------------------|
D|-------9--------------------------------------------------------------------|

Guitar 2

D|----------------------------------------------------------------------------|
A|----------------------------------------------------------------------------|
F|-------------10--11---14-----10---------------------------------------------|
C|------11----x----x-----x------x---------------------------------------------|
G|-------x-----8---9----12-----8----------------------------------------------|
D|-------9--------------------------------------------------------------------|

-----------------------------------------------------------------------------------------------|
-----------------------------------------------------------------------------------------------|


Both guitars

D|----------------------------------------------------------------------------|
A|----------------------------------------------------------------------------|
F|----------------------------------------------------------------------------|
C|----------------------------------------------------------------------------|
G|----------------------------------------------------------------------------|
D|----5-0-55-0-5-0-55-0-5-0-5-0-55-0-5-0-55-0---------------------------------|


D|----------------------------------------------------------------------------|
A|----------------------------------------------------------------------------|
F|----------------------------------------------------------------------------|
C|----------------------------------------------------------------------------|
G|----------------------------------------------------------------------------|
D|----4-0-44-0-4-0-4-0-4-0-44-0-4-0-44-0-4-0-4-0-44-0-------------------------|

D|----------------------------------------------------------------------------|
A|----------------------------------------------------------------------------|
F|----------------------------------------------------------------------------|
C|----------------------------------------------------------------------------|          Finish
G|----------------------------------------------------------------------------|
D|-------4-0-44-0-4-0-44 0 4-0-44---------------------------------------------|


    This part is all palm-muted (P.M)

-----------------------------------------------------------------------------------------------|
-----------------------------------------------------------------------------------------------|


************************************

| /   slide up
| \   slide down
| h   hammer-on
| p   pull-off
| ~   vibrato
| +   harmonic
| x   Mute note
| b   Bend
| pb  Pre-bend
| br  Bend release
| pbr Pre-bend release
| brb Bend release bend

************************************
Добавлено: 11.08.2013
Другие материалы по этой песне:
  • Аккорды и текст

Страница создана 11.08.2013
http://primanota.ru/gojira/pain-is-a-master-chords.htm
Привет, Гость.
Предлагаем пройти революционный курс по гитаре.
Подарок от PrimaNota.Ru, забирай!