PrimaNota.ru - самый крупный в мире бесплатный архив песенных текстов, аккордов, табулатур и нот


Glen Campbell - Im Getting Used To The Crying - бас-таба, видео

Регистрация Запомнить меня
Войти через:  Facebook Google Twitter Vk Yandex Mail.ru

Glen Campbell - Im Getting Used To The Crying - бас-таба, видео

Печатать
Просмотров: 36
Уроки эстрадного вокала в Санкт-Петербурге
Авторы музыки: Roger Miller, Michael Smotherman

Tabbed by: 6METAL6BASSIST6
E-mail: petergriffinav@gmail.com

Tuning: EADG

0:09

G|----------------------------------------------------------------|
D|----------------------------------------------------------------| x2
A|1---------------------------1---1-------------------------------|
E|----------------------------------------------------------------|

0:17

G|----------------------------------------------------------------|
D|----------------------------------------------------------------| x2
A|1---------------------------1---1-------------------------------|
E|----------------------------------------------------------------|

G|----------------------------------------------------------------|
D|--------------------------------------------------------3-------|
A|0-----------------------0---------------------------------------|
E|----------------------------3---1-------------------------------|

G|----------------------------------------------------------------|
D|----------------------------------------------------------------|
A|1---------------------------1---1-------------------------------|
E|----------------------------------------------------------------|

0:34

G|----------------------------------------------------------------|
D|----------------------------------------------------------------| x2
A|1---------------------------1---1-------------------------------|
E|----------------------------------------------------------------|

G|----------------------------------------------------------------|
D|3---------------------------3-----------------------------------|
A|--------------------------------3-------------------------------|
E|------------------------------------------------1---------------|

G|----------------------------------------------------------------|
D|----------------------------------------------------------------|
A|1---------------------------1---1-------------------------------|
E|----------------------------------------------------------------|

0:51

G|----------------------------------------------------------------|
D|----------------------------------------------------------------| x2
A|1---------------------------1---1-------------------------------|
E|----------------------------------------------------------------|

G|----------------------------------------------------------------|
D|--------------------------------------------------------3-------|
A|0---------------------------------------------------------------|
E|----------------------------3---1-------------------------------|

G|----------------------------------------------------------------|
D|----------------------------------------------------------------|
A|1---------------------------1---1-------------------------------|
E|----------------------------------------------------------------|

1:08

G|----------------------------------------------------------------|
D|----------------------------------------------------------------| x2
A|1---------------------------1---1-------------------------------|
E|----------------------------------------------------------------|

G|----------------------------------------------------------------|
D|3---------------------------3-----------------------------------|
A|--------------------------------3-------------------------------|
E|------------------------------------------------1---------------|

G|----------------------------------------------------------------|
D|----------------------------------------------------------------|
A|1---------------------------1---1-------------------------------|
E|----------------------------------------------------------------|



1:43

G|----------------------------------------------------------------|
D|--------------------------------------------------------0-------|
A|1---------------------------1---1-------------------------------|
E|----------------------------------------------------------------|

G|----------------------------------------------------------------|
D|1-------------------------------1---------------1---------------|
A|----------------------------1---------------------------3-------|
E|----------------------------------------------------------------|

G|----------------------------------------------------------------|
D|3-------------------------------------------5---3---------------|
A|------------------------5---4---3-------------------------------|
E|--------------------------------------------------------1-------|

G|------------------------------------------------3---------------|
D|--------------------------------------------------------3-------|
A|1---------------------------1---1-------------------------------|
E|----------------------------------------------------------------|

2:00

G|----------------------------------------------------------------|
D|----------------------------------------------------------------| x2
A|1---------------------------1---1-------------------------------|
E|----------------------------------------------------------------|

G|----------------------------------------------------------------|
D|--------------------------------------------------------3-------|
A|0-----------------------0---------------------------------------|
E|----------------------------3---1-------------------------------|

G|----------------------------------------------------------------|
D|----------------------------------------------------------------|
A|1---------------------------1---1-------------------------------|
E|----------------------------------------------------------------|

2:17

G|----------------------------------------------------------------|
D|----------------------------------------------------------------| x2
A|1---------------------------1---1-------------------------------|
E|----------------------------------------------------------------|

G|----------------------------------------------------------------|
D|3---------------------------3-------------------3---------------|
A|--------------------------------3-------------------------------|
E|----------------------------------------------------------------|

G|----------------------------------------------------------------|
D|5---------------------------3---1---------------------------3---|
A|----------------------------------------------------------------|
E|----------------------------------------------------------------|

G|----------------------------------------------------------------|
D|----------------------------------------------------------------|
A|1---------------------------1---1-------------------------------|
E|----------------------------------------------------------------|
Добавлено: 24.10.2017
Другие материалы по этой песне:
  • Аккорды и текст

Страница создана 24.10.2017
http://primanota.ru/glen-campbell/im-getting-used-to-crying-chords.htm
Привет, Гость.
Предлагаем пройти революционный курс по гитаре.
Подарок от PrimaNota.Ru, забирай!