PrimaNota.ru - самый крупный в мире бесплатный архив песенных текстов, аккордов, табулатур и нот


Glen Campbell - Old Toy Trains - бас-таба, видео

Регистрация Запомнить меня
Войти через:  Facebook Google Twitter Vk Yandex Mail.ru

Glen Campbell - Old Toy Trains - бас-таба, видео

Печатать
Просмотров: 56
Уроки эстрадного вокала в Санкт-Петербурге
Tabbed by: 6METAL6BASSIST6
E-mail: petergriffinav@gmail.com

Tuning: EADG

G|----------------------------------------------------------------|
D|----------------------------------------------------------------|
A|7---------------7---7-----------7---------------7---7-----------|
E|----------------------------------------------------------------|

G|----------------------------------------------------------------|
D|----------------------------------------------------------------|
A|7---------------7---7-----------7-------------------------------|
E|----------------------------------------------------------------|

0:11

G|----------------------------------------------------------------|
D|----------------------------------------------------------------|
A|7-----------7---7---------------6-----------6---6---------------|
E|----------------------------------------------------------------|

G|----------------------------------------------------------------|
D|----------------------------------------------------------------|
A|4-----------4---4---------------2-----------2---2---4---6-------|
E|----------------------------------------------------------------|

G|----------------------------------------------------------------|
D|--------------------------------7-----------7---7---------------|
A|7-----------7---7-----------------------------------------------|
E|----------------------------------------------------------------|

G|9---8---6-------------------------------------------------------|
D|------------9---7---6-------------------------------------------|
A|----------------------------7---7-------------------------------|
E|----------------------------------------------------------------|

0:32

G|----------------------------------------------------------------|
D|9-----------9---9---------------9-----------9---9---------------|
A|----------------------------------------------------------------|
E|----------------------------------------------------------------|

G|----------------------------------------------------------------|
D|7-----------7---7-----------------------------------------------|
A|--------------------------------7-----------7---7-------6-------|
E|----------------------------------------------------------------|

G|----------------------------------------------------------------|
D|--------------------------------4-----------4---4---------------|
A|4-----------4---4-----------4-----------------------------------|
E|----------------------------------------------------------------|

G|----------------------------------------------------------------|
D|9-----------9---9---9-------9---9-------------------------------|
A|----------------------------------------------------------------|
E|----------------------------------------------------------------|

0:53

G|----------------------------------------------------------------|
D|----------------------------------------------------------------|
A|7-----------7---7---------------6-----------6---6---------------|
E|----------------------------------------------------------------|

G|----------------------------------------------------------------|
D|----------------------------------------------------------------|
A|4-----------4---4---------------2-----------2---2-------4---6---|
E|----------------------------------------------------------------|

G|----------------------------------------------------------------|
D|--------------------------------7-----------7---7---------------|
A|7-----------7---7-----------------------------------------------|
E|----------------------------------------------------------------|

G|9---8---6-----------------------|
D|------------9---7---6-----------|
A|----------------------------7---|
E|--------------------------------|

G|----------------------------------------------------------------|
D|----------------------------------------------------------------|
A|7-----------7---7---------------7-----------7---7---------------|
E|----------------------------------------------------------------|

G|----------------------------------------------------------------|
D|----------------------------------------------------------------|
A|7-----------7---7---------------7-------------------------------|
E|----------------------------------------------------------------|

1:22

G|----------------------------------------------------------------|
D|9---------------9---------------9-----------9---9---------------|
A|----------------------------------------------------------------|
E|----------------------------------------------------------------|

G|----------------------------------------------------------------|
D|7-----------7---7-----------------------------------------------|
A|--------------------------------7-----------7---7-------6-------|
E|----------------------------------------------------------------|

G|----------------------------------------------------------------|
D|--------------------------------4-----------4---4---------------|
A|4-----------4---4-----------------------------------------------|
E|----------------------------------------------------------------|

G|----------------------------------------------------------------|
D|9-----------9---9---9-------9---9-------------------------------|
A|----------------------------------------------------------------|
E|----------------------------------------------------------------|

1:43

G|----------------------------------------------------------------|
D|----------------------------------------------------------------|
A|7-----------7---7---------------6-----------6---6---------------|
E|----------------------------------------------------------------|

G|----------------------------------------------------------------|
D|----------------------------------------------------------------|
A|4-----------4---4---------------2-----------2---2-------4---6---|
E|----------------------------------------------------------------|

G|----------------------------------------------------------------|
D|--------------------------------7-----------7---7---------------|
A|7-----------7---7-----------------------------------------------|
E|----------------------------------------------------------------|

G|9---8---6-------------------------------------------------------|
D|------------9---7---6-------------------------------------------| x2
A|----------------------------7---7-----------7---7---------------|
E|----------------------------------------------------------------|

G|----------------------------------------------------------------|
D|----------------------------------------------------------------|
A|7-----------7---7---------------7-------------------------------|
E|----------------------------------------------------------------|
Добавлено: 24.10.2017
Другие материалы по этой песне:
  • Аккорды и текст

Страница создана 24.10.2017
http://primanota.ru/glen-campbell/old-toy-trains-chords.htm
Привет, Гость.
Предлагаем пройти революционный курс по гитаре.
Подарок от PrimaNota.Ru, забирай!