PrimaNota.ru - самый крупный в мире бесплатный архив песенных текстов, аккордов, табулатур и нот


Glen Campbell - The Christmas Song - бас-таба, видео

Регистрация Запомнить меня
Войти через:  Facebook Google Twitter Vk Yandex Mail.ru

Glen Campbell - The Christmas Song - бас-таба, видео

Печатать
Просмотров: 42
Уроки эстрадного вокала в Санкт-Петербурге
Авторы музыки: Mel Tormé
Авторы текста: Mel Tormé, Robert Wells
Tabbed by: 6METAL6BASSIST6
E-mail: petergriffinav@gmail.com

Tuning: EADG

G|------------------------------------------------------------------------------------------------|
D|3-----------------------4-----------------------------------------------2-----------------------|
A|------------------------------------------------2-----------------------------------------------|
E|------------------------------------------------------------------------------------------------|

G|------------------------------------------------------------------------------------------------|
D|------------------------------------------------------------------------------------------------|
A|----------------2---4---5-----------------------------------------------5-----------------------|
E|5-----------------------------------------------5-----------------------------------------------|

G|------------------------|
D|------------------------|
A|----------------2---4---|
E|5-----------------------|

0:17

G|------------------------------------------------------------------------------------------------|
D|------------------------2-----------------------4-----------------------5---------------4---2---|
A|5-----------------------------------------------------------------------------------------------|
E|------------------------------------------------------------------------------------------------|

G|------------------------------------------------------------------------------------------------|
D|------------------------7-----------------------5-----------------------------------4-----------|
A|5-----------------------------------5-------------------------------2---4-----------------------|
E|----------------------------------------------------------------5-------------------------------|

0:32

G|------------------------------------------------------------------------------------------------|
D|------------------------------------------------------------7-----------6-----------------------|
A|2-----------------------3-----------------------5-----------------------------------4-----------|
E|------------------------------------------------------------------------------------------------|

G|------------------------------------------------------------------------------------------------|
D|4-----------------------5-----------------------3-----------------------2-----------------------|
A|------------------------------------3---------------------------------------------------2---4---|
E|------------------------------------------------------------------------------------5-----------|

0:48

G|------------------------------------------------------------------------------------------------|
D|------------------------2-----------------------4-----------------------5---------------4---2---|
A|5-----------------------------------------------------------------------------------------------|
E|------------------------------------------------------------------------------------------------|

G|------------------------------------------------------------------------------------------------|
D|------------------------7-----------------------5-----------------------------------4-----------|
A|5-----------------------------------5-------------------------------2---4-----------------------|
E|----------------------------------------------------------------5-------------------------------|

1:04

G|------------------------------------------------------------------------------------------------|
D|--------------------------------------------------------------------7---6-----------------------|
A|2-----------------------3-----------------------5-----------------------------------4-----------|
E|------------------------------------------------------------------------------------------------|

G|------------------------------------------------------------------------------------------------|
D|4-----------------------2-----------------------------------------------------------------------|
A|------------2---------------------------2---4---5-----------------------5---------------4---2---|
E|------------------------------------5-----------------------------------------------------------|

1:20

G|------------------------------------------------------------------------------------------------|
D|------------------------------------------------------------------------------------------------|
A|------------------------5-------------------5---------------------------5-------------------5---|
E|5-------------------5---------------------------5-------------------5---------------------------|

G|------------------------------------------------------------------------------------------------|
D|------------------------------------------------5-------------------5---------------------------|
A|------------------------5-------------------5---------------------------5-------------------5---|
E|5-------------------5---------------------------------------------------------------------------|

1:35

G|------------------------------------------------------------------------------------------------|
D|------------------------------------------------3-------------------3-----------------------3---|
A|------------------------3-------------------3---------------------------3-----------------------|
E|3-------------------3---------------------------------------------------------------------------|

G|------------------------------------------------------------------------------------------------|
D|--------------------2---2-------------------2-----------------------2---------------------------|
A|2---------------------------------------------------------------------------------------2---4---|
E|------------------------------------------------5-----------------------5-----------------------|

1:50

G|------------------------------------------------------------------------------------------------|
D|------------------------2-----------------------4-----------------------5---------------4---2---|
A|5-----------------------------------------------------------------------------------------------|
E|------------------------------------------------------------------------------------------------|

G|------------------------------------------------------------------------------------------------|
D|------------------------7-----------------------5-------------------------------2---4-----------|
A|5-----------------------------------5-------------------------------2---4-----------------------|
E|----------------------------------------------------------------5-------------------------------|

2:06

G|------------------------------------------------------------------------------------------------|
D|------------------------------------------------------------7-----------6-----------------------|
A|2-----------------------3-----------------------5-----------------------------------4-----------|
E|------------------------------------------------------------------------------------------------|

G|------------------------------------------------------------------------------------------------|
D|4-----------------------2-----------------------------------------------------------------------|
A|------------2-------------------------------4---5---------------------------------------2---4---|
E|------------------------------------5-----------------------------------5-----------------------|

2:21

G|------------------------------------------------------------------------------------------------|
D|------------------------2-----------------------4-----------------------5---------------4---2---|
A|5-----------------------------------------------------------------------------------------------|
E|------------------------------------------------------------------------------------------------|

G|------------------------------------------------------------------------------------------------|
D|------------------------7-----------------------5-----------------------------------4-----------|
A|5-------------------5---------------5-------------------------------2---4-----------------------|
E|----------------------------------------------------------------5-------------------------------|

2:36

G|------------------------------------------------------------------------------------------------|
D|--------------------------------------------------------------------7---6-----------------------|
A|2-----------------------3-----------------------5-----------------------------------4-----------|
E|------------------------------------------------------------------------------------------------|

G|------------------------------------------------------------------------------------------------|
D|4---------------------2-------------------------------------------------------------------------|
A|------------2---------------------------------------------------------------5-------------------|
E|--------------------------------------------5---------------------------------------------------|
Добавлено: 24.10.2017
Другие материалы по этой песне:
  • Аккорды и текст

Страница создана 24.10.2017
http://primanota.ru/glen-campbell/christmas-song-chords.htm
Привет, Гость.
Предлагаем пройти революционный курс по гитаре.
Подарок от PrimaNota.Ru, забирай!