PrimaNota.ru - самый крупный в мире бесплатный архив песенных текстов, аккордов, табулатур и нот


Glen Campbell - Pretty Papers - бас-таба, видео

Регистрация Запомнить меня
Войти через:  Facebook Google Twitter Vk Yandex Mail.ru

Glen Campbell - Pretty Papers - бас-таба, видео

Печатать
Просмотров: 53
Уроки эстрадного вокала в Санкт-Петербурге
Tabbed by: 6METAL6BASSIST6
E-mail: petergriffinav@gmail.com

Tuning: EADG

G|------------------------------------------------------------------------|
D|4-----------------------------------------------------------------------| x2
A|------------------------------------4-----------------------------------|
E|------------------------------------------------------------------------|

0:09

G|------------------------------------------------------------------------|
D|4-----------------------------------4-----------------------------------|
A|------------------------------------------------------------------------|
E|------------------------------------------------------------------------|

G|------------------------------------------------------------------------|
D|--------------------------------6---------------------------------------|
A|4-----------------------------------4-----------------------------------|
E|------------------------------------------------------------------------|

G|------------------------------------------------------------------------|
D|--------------------------------6---------------------------3-----------|
A|4-----------------------------------4-----------6-----------------------|
E|------------------------------------------------------------------------|

G|------------------------------------------------3-----------------------|
D|4-----------------------------------4-------6---------------------------|
A|--------------------------------4---------------------------4-----------|
E|------------------------------------------------------------------------|

0:26

G|------------------------------------------------------------------------|
D|4-----------------------------------4-----------6-----------8-----------|
A|--------------------------------4---------------------------------------|
E|------------------------------------------------------------------------|

G|------------------------------------------------------------------------|
D|9-------------------------------4---------------------------------------|
A|------------------------------------2-----------------------------------|
E|------------------------------------------------------------------------|

G|------------------------------------------------------------------------|
D|4-------------------------------4---------------------------------------|
A|------------------------------------4-----------------------------------|
E|------------------------------------------------------------------------|

G|------------------------------------------------------------------------|
D|4-----------------------------------4-----------------------------------|
A|--------------------------------4-----------------------------------4---|
E|------------------------------------------------------------------------|

0:43

G|------------------------------------------------------------------------|
D|4-----------------------------------------------------------------------|
A|------------------------------------4-------------------------------4---|
E|------------------------------------------------------------------------|

G|------------------------------------------------3-----------------------|
D|4-----------------------------------4-------6---------------------------|
A|--------------------------------4---------------------------4-----------|
E|------------------------------------------------------------------------|

G|------------------------------------------------------------------------|
D|4-------------------------------4---------------------------------------|
A|------------------------------------4-------------------------------4---|
E|------------------------------------------------------------------------|

G|------------------------------------------------------------------------|
D|4-----------------------------------4-----------------------------------|
A|--------------------------------4-----------------------------------4---|
E|------------------------------------------------------------------------|

0:59

G|------------------------------------------------------------------------|
D|4-----------------------------------4-----------6-----------8-----------|
A|--------------------------------4---------------------------------------|
E|------------------------------------------------------------------------|

G|------------------------------------------------------------------------|
D|9-----------------------------------9-----------------------------------|
A|--------------------------------9---------------------------------------|
E|------------------------------------------------------------------------|

G|------------------------------------------------------------------------|
D|6-----------------------------------6-----------------------------------|
A|--------------------------------6---------------------------3-------6---|
E|------------------------------------------------------------------------|

G|------------------------------------------------------------------------|
D|--------------------------------6---------------3-----------6-----------|
A|4-----------------------------------4-------6---------------------------|
E|------------------------------------------------------------------------|

1:16

G|------------------------------------------------------------------------|
D|4-------------------------------4---------------------------------------|
A|------------------------------------4-------------------------------4---|
E|------------------------------------------------------------------------|

G|------------------------------------------------3-----------------------|
D|4-----------------------------------4-------6---------------------------|
A|--------------------------------4---------------------------4-----------|
E|------------------------------------------------------------------------|

G|------------------------------------------------------------------------|
D|4-------------------------------4---------------------------------------|
A|------------------------------------4-------------------------------4---|
E|------------------------------------------------------------------------|

G|------------------------------------------------------------------------|
D|4-----------------------------------4-----------------------------------|
A|--------------------------------4-----------------------------------4---|
E|------------------------------------------------------------------------|

1:34

G|------------------------------------------------------------------------|
D|4-----------------------------------4-----------6-----------8-----------|
A|--------------------------------4---------------------------------------|
E|------------------------------------------------------------------------|

G|------------------------------------------------------------------------|
D|9-------------------------------4---------------------------------------|
A|------------------------------------2-----------------------------------|
E|------------------------------------------------------------------------|

G|------------------------------------------------------------------------|
D|4-------------------------------4---------------------------------------|
A|------------------------------------4-----------------------------------|
E|------------------------------------------------------------------------|

G|------------------------------------------------------------------------|
D|4-----------------------------------------------------------4-----------|
A|------------------------------------5-----------7-----------------------|
E|------------------------------------------------------------------------|

1:50

G|------------------------------------------------------------------------|
D|5-----------------------------------5-------------------------------5---|
A|--------------------------------5---------------------------------------|
E|------------------------------------------------------------------------|

G|------------------------------------------------------------------------|
D|--------------------------------7---------------------------------------|
A|5-----------------------------------5-----------------------------------|
E|------------------------------------------------------------------------|

G|------------------------------------------------------------------------|
D|--------------------------------7---------------------------4-----------|
A|5-----------------------------------5-----------7-----------------------|
E|------------------------------------------------------------------------|

G|------------------------------------------------4-----------------------|
D|5-----------------------------------5-------7---------------------------|
A|--------------------------------5---------------------------5-----------|
E|------------------------------------------------------------------------|

2:08

G|------------------------------------------------------------4-----------|
D|5-----------------------------------5-----------7-----------------------|
A|--------------------------------5---------------------------------------|
E|------------------------------------------------------------------------|

G|5-----------------------------------------------------------------------|
D|--------------------------------5---------------------------------------|
A|------------------------------------3-----------------------------------|
E|------------------------------------------------------------------------|

G|------------------------------------------------------------------------|
D|5-----------------------------------------------------------------------|
A|------------------------------------5-----------------------------------|
E|------------------------------------------------------------------------|

G|5-----------------------------------5-----------4-----------------------|
D|------------------------------------------------------------7-----------|
A|------------------------------------------------------------------------|
E|------------------------------------------------------------------------|

G|------------------------------------------------------------------------|
D|5-----------------------------------------------------------------------|
A|--------------------------------5---------------------------------------|
E|------------------------------------3-----------------------------------|
Добавлено: 24.10.2017
Другие материалы по этой песне:
  • Аккорды и текст

Страница создана 24.10.2017
http://primanota.ru/glen-campbell/pretty-papers-chords.htm
Привет, Гость.
Предлагаем пройти революционный курс по гитаре.
Подарок от PrimaNota.Ru, забирай!