PrimaNota.ru - самый крупный в мире бесплатный архив песенных текстов, аккордов, табулатур и нот


Glen Campbell - Have Yourself A Merry Little Christmas - бас-таба, видео

Регистрация Запомнить меня
Войти через:  Facebook Google Twitter Vk Yandex Mail.ru

Glen Campbell - Have Yourself A Merry Little Christmas - бас-таба, видео

Печатать
Просмотров: 39
Уроки эстрадного вокала в Санкт-Петербурге
Авторы музыки: Ralph Blane, Hugh Martin
Авторы текста: Ralph Blane, Hugh Martin
Tabbed by: 6METAL6BASSIST6
E-mail: petergriffinav@gmail.com

Tuning: EADG

0:15

G|------------------------------------------------------------------------------------------------|
D|8-----------7-----------5-----------3-----------------------------------3-----------------------|
A|------------------------------------------------3-----------------------------------------------|
E|------------------------------------------------------------------------------------------------|

G|------------------------------------------------------------------------------------------------|
D|8-----------7-----------5-----------3-----------10------------------10--------------------------|
A|------------------------------------------------------------------------8-----------------------|
E|------------------------------------------------------------------------------------------------|

0:29

G|------------------------------------------------------------------------------------------------|
D|8-----------7-----------5-----------------------------------------------3-----------------------|
A|------------------------------------------------3-------------------------------------------6---|
E|------------------------------------------------------------------------------------------------|

G|------------------------------------------------------------------------------------------------|
D|------------------------------------------------------------------------3-------------------3---|
A|5-----------------------------------------------3-------------------3---------------------------|
E|------------------------3-----------------------------------------------------------------------|

0:42

G|------------------------------------------------------------------------------------------------|
D|8-----------7-----------5-----------3-----------10------------------10--------------------------|
A|------------------------------------------------------------------------8-----------------------|
E|------------------------------------------------------------------------------------------------|

G|------------------------------------------------------------------------------------------------|
D|8-----------7-----------5-----------3-----------------------------------3-----------------------|
A|------------------------------------------------3-----------------------------------------------|
E|------------------------------------------------------------------------------------------------|

0:57

G|------------------------------------------------------------------------------------------------|
D|8-----------7-----------5-------------------------------------------------------------------4---|
A|------------------------------------------------3-----------------------5---------------5-------|
E|------------------------------------------------------------------------------------------------|

G|------------------------------------------------------------------------------------------------|
D|5-----------------------4-----------------------3-------------------3---------------8-----------|
A|------------------------------------------------------------------------1-----------------------|
E|------------------------------------------------------------------------------------------------|

1:10

G|------------------------------------------------------------------------------------------------|
D|------------------------------------------------------------------------------------------------|
A|6-----------------------6-----------------------5-------------------5---4-----------------------|
E|------------------------------------------------------------------------------------------------|

G|------------------------------------------------------------------------------------------------|
D|------------------------3-----------------------------------------------------------3-----------|
A|3-----------------------------------------------1-------------------1---------------------------|
E|------------------------------------1-----------------------------------3-----------------------|

1:24

G|------------------------------------------------------------------------------------------------|
D|2-------------------------------------------------------------------4---5-----------------------|
A|------------------------------------------------5---------------5-------------------------------|
E|------------------------5-----------------------------------------------------------------------|

G|------------------------------------------------------------------------------------------------|
D|------------------------------------------------3-----------------------3-----------3-----------|
A|3-----------------------3-------------------------------------------3---------------------------|
E|------------------------------------------------------------------------------------------------|

1:38

G|------------------------------------------------------------------------------------------------|
D|8-----------7-----------5-----------3-----------------------------------3-------------------7---|
A|------------------------------------------------3-----------------------------------------------|
E|------------------------------------------------------------------------------------------------|

G|------------------------------------------------------------------------------------------------|
D|8-----------7-----------5-----------3-----------10----------------------------------------------|
A|------------------------------------------------------------------------8-----------------------|
E|------------------------------------------------------------------------------------------------|

1:53

G|------------------------------------------------------------------------------------------------|
D|8-----------7-----------5-------------------------------------------------------------------4---|
A|------------------------------------------------3-------------------3---5---------------5-------|
E|------------------------------------------------------------------------------------------------|

G|------------------------------------------------------------------------15----------------------|
D|5-----------------------5---------------5---7---8-----------------------------------------------|
A|----------------------------------------------------------------------------------------8-------|
E|------------------------------------------------------------------------------------------------|

2:07

G|------------------------------------------------------------------------------------------------|
D|------------------------------------------------------------------------------------------------|
A|6-----------------------6-----------5-----------3-----------------------------------------------|
E|------------------------------------------------------------------------1-----------------------|

G|------------------------------------------------------------------------------------------------|
D|------------------------5-----------------------------------------------3-----------3-----------|
A|1-----------------------------------------------3-------------------3---------------------------|
E|------------------------------------------------------------------------------------------------|

2:22

G|------------------------------------------------------------------------------------------------|
D|8-----------7-----------5-----------3-----------------------------------3-----------------------|
A|------------------------------------------------3-------------------3---------------------------|
E|------------------------------------------------------------------------------------------------|

G|------------------------------------------------------------------------------------------------|
D|8-----------7-----------5-----------3-----------10------------------10--------------------------|
A|------------------------------------------------------------------------8-----------------------|
E|------------------------------------------------------------------------------------------------|

2:36

G|------------------------------------------------------------------------------------------------|
D|8-----------7-----------5-----------------------10------------------------------------------4---|
A|------------------------------------------------------------------------5---------------5-------|
E|------------------------------------------------------------------------------------------------|

G|------------------------------------------------------------------------------------------------|
D|5-----------------------5---------------6---7---8---------------------------------------3-------|
A|------------------------------------------------------------------------1-----------------------|
E|------------------------------------------------------------------------------------------------|

2:50

G|------------------------------------------------------------------------------------------------|
D|1-----------------------1-----------0-----------------------------------------------------------|
A|------------------------------------------------3-----------------------------------------------|
E|--------------------------------------------------------------------------------1---------------|

G|------------------------------------------------------------------------------------------------|
D|------------------------------------------------------------------------------------------------|
A|----------------------------------------1-------------------------------------------------------|
E|------1-----------------------------------------------------------------------------------------|

G|------------------------------------------------|
D|------------------------------------------------|
A|------------------------1-----------------------|
E|------------------------------------------------|
Добавлено: 24.10.2017
Другие материалы по этой песне:
  • Аккорды и текст

Страница создана 24.10.2017
http://primanota.ru/glen-campbell/have-yourself-a-merry-little-christmas-chords.htm
Привет, Гость.
Предлагаем пройти революционный курс по гитаре.
Подарок от PrimaNota.Ru, забирай!