PrimaNota.ru - самый крупный в мире бесплатный архив песенных текстов, аккордов, табулатур и нот


Girls Dead Monster - Million Star - таба, видео

Регистрация Запомнить меня
Войти через:  Facebook Google Twitter Vk Yandex Mail.ru

Girls Dead Monster - Million Star - таба, видео

Печатать
Просмотров: 210
-------------------------------------------------------------------------------
                          Girls Dead Monster - Million Star
-------------------------------------------------------------------------------
Tabbed by: Henry

Tuning: Standard

This is just the very basics of the song. Hikarisyuyo does some crazy cutting stuff 
further up the neck for most of the song, but this should cover the main chords.

Work out the strumming pattern by listening to the song. To save me from writing out the 
chords over and over, I'll just write them once.
Feel free to improvise the lead parts. Use the lyrics to guide you if you get stuck 
(sorry if they're a little off; my Japanese isn't that good!)

Watch this if you want to see how I play it - https://www.youtube.com/watch?v=0KOPIA9xvdU

Part A

e|---------------------------------------------------------------------------|
B|---------------------------------------------------------------------------|
G|-6-----------------------------9-----------11--------9---------------------|
D|-7-----------------------------9-----------9---------9---------------------|
A|-5-----------------------------7-----------7---------7---------------------|
E|---------------------------------------------------------------------------|

   yume nante kanau wake nai shi yaritakunai koto yamadzumi de

e|---------------------------------------------------------------------------|
B|--4------5--------4--------------------10--9--10-10-10---------------------|
G|--4------4--------4------------2-2-2---9---9--9--9--9----------------------|
D|-------------------------------2-2-2---------------------------------------|
A|--4------4--------4------------0-0-0---------------------------------------|
E|---------------------------------------------------------------------------|

   utsu ni naru hi mo ookute mou iya ni naru na


Repeat again!

Part B

Palm mute the first bit! If you're feeling funky go ahead and do some lead stuff like 
with the end of Part A. He's doing some stuff with the 9th, 10th and 12th frets on the B string.

e|-------------------------------------------------------------------------------------------|
B|----------------------------------------------7----or----2----(work out the timing---------|
G|---7----------9-------------------------------9b---------4b--------------------------------|
D|---7----------9-----------------4---4--2---------------------------------------------------|
A|---5----------7-----------------4---4--2---------------------------------------------------|
E|--------------------------------2---2--0---(something like that)---------------------------|

     saa asu no tame nani o suru ka

Part C

Just play these once

e|---------------------------------------------------------------------------|
B|-----------------------------3----------------2----------------------------|
G|--7-----------9--------------2----------------2----------------------------|
D|--7-----------9------------------------------------------------------------|
A|--5-----------7--------------2----------------2----------------------------|
E|---------------------------------------------------------------------------|

    dare yorimo aishiteru      sonna shakudo de hakaru mon janai

e|---------------------------------------------------------------------------|
B|---------------------------------------------------------------------------|
G|---2--------4--------------------------------------------------------------|
D|---2--------4----------4---------------------------------------------------|
A|---0--------2----------4---------------------------------------------------|
E|-----------------------2---------------------------------------------------|

     unuboreteita dake kamo

Part D

Repeat twice, but take note that the end of this section is extended a little on the 
second time

muh key change - pay attention to the strumming pattern here, lot's of mutes and stuff. 
Add lead fills and stuff too (listen to the song)

e|---------------------------------------------------------------------------|
B|---------------------------------------------------------------------------|
G|--8--------------4---------------------6-----------------------------------|
D|--8--------------4-----------4---------6-----------------------------------|
A|--6--------------2-----------4---------4-----------------------------------|
E|-----------------------------2---------------------------------------------|

    kono nodo kara hotobashiru chi no you na uta

e|---------------------------------------------------------------------------|
B|---------------------------------------------------------------------------|
G|--4--------3----------8----6---8-8---(Listen to the song for the rhythm)---|
D|--4--------3---------------------------------------------------------------|
A|--2--------1----------6----4---6-6-----------------------------------------|
E|---------------------------------------------------------------------------|

   dareka ni todoku you inotteru

Play part A twice again

Part B Once

Part C a few times, do some crazy cutting stuff if you want or just keep doing the 
rhythm guitar

And that's the song! Sorry it's a little basic, I'm too lazy to tab out the entire song. 
Hopefully this helps!

************************************

| /   slide up
| \   slide down
| h   hammer-on
| p   pull-off
| ~   vibrato
| +   harmonic
| x   Mute note
| b   Bend
| pb  Pre-bend
| br  Bend release
| pbr Pre-bend release
| brb Bend release bend

************************************
Добавлено: 13.12.2015
Другие материалы по этой песне:
  • Аккорды и текст

Страница создана 13.12.2015
http://primanota.ru/girls-dead-monster/million-star-chords.htm
Привет, Гость.
Предлагаем пройти революционный курс по гитаре.
Подарок от PrimaNota.Ru, забирай!