PrimaNota.ru - самый крупный в мире бесплатный архив песенных текстов, аккордов, табулатур и нот


Girls Dead Monster - Ichiban No Takaramono - аккорды и текст, таба, видео

Регистрация Запомнить меня
Войти через:  Facebook Google Twitter Vk Yandex Mail.ru

Girls Dead Monster - Ichiban No Takaramono - аккорды и текст, таба, видео

Печатать
Просмотров: 3736
Ichiban No Takaramono
Girls Dead Monster
v1.4 by flipocrisy

Intro

[note: C add11 = x32011, C6 add11 = x02211]
A#sus2   C add11   C6 add11   F (sus4 hammer/pull)
A#sus2   C add11   Dm        Dm7      F

Verse 1

[note: D m(maj7) or A aug/D = xx0221, F sus4/G = 3x331x]]
[    : G# 6 = 466564 or xx1111]
A#sus2    C        Am       F          Am
A#sus2    C        Dm       Dm(maj7)

E ---------|
H ---------|
G ---------|
D 4-5p4----|
A 5-----5--|
E ---------|

Fsus4/G   Am      A#sus2   Dm
Fsus4/G   Am      G#6      A#sus2      Cadd11
A#sus2    Cadd11

Chorus

[note:  Dsus2(maj7) = xx0220, A/F# or modified F#m7 = 202220)]
A sus2/F#   Dsus2(maj7)   E    A (maj7 pull/hammer)
A sus2/F#   Dsus2(maj7)   E (sus4 hammer/pull)
A (maj7 pull/hammer)
A sus2/F#   D sus2(maj7)   E (sus4 hammer/pull)
A (maj7 pull/hammer)
A sus2/F#   D sus2(maj7)   E (sus4 hammer/pull)   A

Interlude

A#sus2   Cadd11   C6 add11   F  (sus4 hammer/pull)
A#sus2   Cadd11   Dm   Dm(maj7)   Dm7      F

Verse 2

E ---------|
H ---------|
G ---------|
D 4-5p4----|
A 5-----5--|
E ---------|

Interlude 2 (Rhytm = Chorus)

Solo

E---------------------------------------------------|
B---------------------------------------------------|
G---------------------------------------------------|
D 5/7-6-7-------7-7/9-11---5/7-6-7------7-7/9-11----|
A---------5/7-5---------------------7-5-------------|
E---------------------------------------------------|

E---------------------------------------------------------|
B---------------------------------------------------------|
G---------------------------------------------------------|
D---5/7-6-7------7--7/9-11---7-7/9-7----------------------|
A------------7-5----------------------4/5-4---------------|
E--------------------------------------------5/7-7/5-5-5--|

Chorus

Chorus (Key Change)

[note: A# sus2/G = 313311]
A# sus2/G   D#   F (sus4 hammer/pull)  A#
(maj7 pull/hammer)
(x4)

Outro:

E----------------------------------------------------|
B----------------------------------------------------|
G----------------------------------------------------|
D-6/8-7-8------8-8/10-12---6/8-7-8-----8-8/10-12-----|
A---------6/8-6---------------------8-6--------------|
E----------------------------------------------------|

E-----------------------------------------------------------|
B-----------------------------------------------------------|
G-----------------------------------------------------------|
D-6/8-7-8------8-8/10-12----8-8/10-8------------------------|
A---------6/8-6------------------------5/6-5----------------|
E---------------------------------------------6/8-8/6-6-6---| [3x]
Добавлено: 30.12.2013
Другие материалы по этой песне:

Страница создана 03.04.2012
http://primanota.ru/girls-dead-monster/ichiban-no-takaramono-chords.htm
Привет, Гость.
Предлагаем пройти революционный курс по гитаре.
Подарок от PrimaNota.Ru, забирай!