PrimaNota.ru - самый крупный в мире бесплатный архив песенных текстов, аккордов, табулатур и нот


Ghost - Prime Mover - таба, видео

Регистрация Запомнить меня
Войти через:  Facebook Google Twitter Vk Yandex Mail.ru

Ghost - Prime Mover - таба, видео

Печатать
Просмотров: 84
-------------------------------------------------------------------------------
                             PRIME MOVER - Ghost
-------------------------------------------------------------------------------
Tabbed by: Kyle Van Koevering
E-mail: kyle.vankoevering@gmail.com

Tuning: One step down (D G C F A D)

Intro

Right Guitar
d|---|       |---------------------------------------------------------------|
A|-0-|       |---------------------------------------------------------------|
F|-4-| x~300 |---------------------------------------------------------------|
C|---|       |---------------------------------------------------------------|
G|---|       |---------------------------------------------------------------|
D|---|       |---------------------------------------------------------------|

Left Guitar
d|----------------------------------|    |-----------------------------------|
A|----------------------------------|    |-----------------------------------|
F|----------------------------------| x5 |-----------------------------------|
C|----------------------------------|    |-----------------------------------|
G|----------------------------------|    |-----------------------------------|
D|-7/8\4----0/5\4----7/8\4----0/8\7-|    |-----------------------------------|

Both Guitars
d|---------------------------------------------------------------------------|
A|---------------------------------------------------------------------------|
F|-3-3-3---------------------------------------------------------------------|
C|-3-3-3-2-2----2----2-2-2----2-2-2----2-2-2----2-2-2----2-2-2----2-2-2------|
G|-1-1-1-2-2----2----2-2-2----2-2-2----2-2-2----2-2-2----2-2-2----2-2-2------|
D|-------0-0----0----0-0-0----0-0-0----0-0-0----0-0-0----0-0-0----0-0-0------|

Left Guitar
d|----|     |----------------------------------------------------------------|
A|----|     |----------------------------------------------------------------|
F|-12-|     |----------------------------------------------------------------|
C|-x--| x84 |----------------------------------------------------------------|
G|-10-|     |----------------------------------------------------------------|
D|----|     |----------------------------------------------------------------|

Right Guitar
d|---------------------------------|    |------------------------------------|
A|---------------------------------|    |------------------------------------|
F|---------------------------------|    |------------------------------------|
C|---------------------------------|    |------------------------------------|
G|-------6-------6-------6-----6-6-| x3 |-------6-------6-------6-----6-7\---|
D|-0-0-0---0-0-0---0-0-0---0-0-----|    |-0-0-0---0-0-0---0-0-0---0-0--------|




Verse x 2

Both Guitars
d|----|     |-----|     |----|     |-----|     |-----|     |-----|     |-----|
A|----|     |-----|     |----|     |-----|     |-----|     |-----|     |-----|
F|----|     |-----|     |----|     |-----|     |-----|     |-----|     |-----|
C|----|     |-----|     |----|     |-----|     |-----|     |-----|     |-----|
G|----|     |-----|     |----|     |-----|     |-----|     |-----|     |-----|
D|-6--| x12 |---2-| x12 |--8-| x12 |---0-| x12 |---2-| x12 |---7-| x12 |-----|

d|---------------------------------------------------------------------------|
A|---------------------------------------------------------------------------|
F|---------------------------------------------------------------------------|
C|---------------------------------------------------------------------------|
G|---------------------------------------------------------------------------|
D|-6-6-6-7-6-6-6-7-6-6-6-7-6-6-7-7-------------------------------------------|




Chorus

Left Guitar
d|---------------------------------------------------------------------------|
A|---------------------------------------------------------------------------|
F|----3-----5-----3-----5--4--3----------------------------------------------|
C|-2--3--2--5--2--3--2--5--4--3----------------------------------------------|
G|-2--1--2--3--2--1--2--3--2--1----------------------------------------------|
D|-0-----0-----0-----0-------------------------------------------------------|

Right Guitar
d|---------------------------------------------------------------------------|
A|---------------------------------------------------------------------------|
F|---12-11-9---12-11-9-12---12-11-9-11-10------------------------------------|
C|---x--x--x---x--x--x-x----x--x--x-x--x-------------------------------------|
G|---10-9--7---10-9--7-10---10-9--7-9--8-------------------------------------|
D|-0---------0------------0--------------------------------------------------|





Both Guitars
d|---------------------------------------------------------------------------|
A|---------------------------------------------------------------------------|
F|---------------------------------------------------------------------------|
C|-2-2-2----2-2-2----2-2-2---------------------------------------------------|
G|-2-2-2----2-2-2----2-2-2---------------------------------------------------|
D|-0-0-0----0-0-0----0-0-0---------------------------------------------------|

Left Guitar
d|---------------------------------|  |--------------------------------------|
A|---------------------------------|  |--------------------------------------|
F|---------------------------------|  |--------------------------------------|
C|---------------------------------|  |--------------------------------------|
G|-------4-------4-------------4-4-|  |--------------------------------------|
D|-3-3-3---3-3-3---3-3-3-3-3-3-----|x4|--------------------------------------|

Right Guitar
d|-------|  |----------------|  |----------------|  |-----------------|--|---|
A|-------|  |-9--------------|  |-9--------------|  |-9---------------|--|-9-|
F|-7-6-5-|x7|----------7-6-5-|x7|----------7-6-5-|x7|-----------7-6-5-|x7|---|
C|-------|  |----------------|  |----------------|  |-----------------|--|---|
G|-------|  |----------------|  |----------------|  |-----------------|--|---|
D|-------|  |----------------|  |----------------|  |-----------------|--|---|





Right Guitar
d|---|       |---------------------------------------------------------------|
A|-0-|       |---------------------------------------------------------------|
F|-4-| x~300 |---------------------------------------------------------------|
C|---|       |---------------------------------------------------------------|
G|---|       |---------------------------------------------------------------|
D|---|       |---------------------------------------------------------------|

Left Guitar
d|----------------------------------|    |-----------------------------------|
A|----------------------------------|    |-----------------------------------|
F|----------------------------------| x5 |-----------------------------------|
C|----------------------------------|    |-----------------------------------|
G|----------------------------------|    |-----------------------------------|
D|-7/8\4----0/5\4----7/8\4----0/8\7-|    |-----------------------------------|

Both Guitars
d|---------------------------------------------------------------------------|
A|---------------------------------------------------------------------------|
F|---------------------------------------------------------------------------|
C|-2-2-2----2-2-2----2-2-2----2-2-2------------------------------------------|
G|-2-2-2----2-2-2----2-2-2----2-2-2------------------------------------------|
D|-0-0-0----0-0-0----0-0-0----0-0-0------------------------------------------|

Right Guitar
d|---------------------------------------------------------------------------|
A|---------------------------------------------------------------------------|
F|---------------------------------------------------------------------------|
C|-------0-1-2----5-4-2-0-1-2------------------------------------------------|
G|-0-1-2---------------------------------------------------------------------|
D|---------------------------------------------------------------------------|




Verse

Left Guitar

d|---------------------------------------------------------------------------|
A|---------------------------------------------------------------------------|
F|---------------------------------------------------------------------------|
C|---------------------------------------------------------------------------|
G|-1----3----2----1----2----1-1-1-2-1-1-1-2-1-1-1-2-1-1-2-2------------------|
D|---------------------------------------------------------------------------|

d|----|     |-----|     |----|     |-----|     |-----|     |-----|     |-----|
A|----|     |-----|     |----|     |-----|     |-----|     |-----|     |-----|
F|----|     |-----|     |----|     |-----|     |-----|     |-----|     |-----|
C|----|     |-----|     |----|     |-----|     |-----|     |-----|     |-----|
G|----|     |-----|     |----|     |-----|     |-----|     |-----|     |-----|
D|-6--| x12 |---2-| x12 |--8-| x12 |---0-| x12 |---2-| x12 |---7-| x12 |-----|

d|---------------------------------------------------------------------------|
A|---------------------------------------------------------------------------|
F|---------------------------------------------------------------------------|
C|---------------------------------------------------------------------------|
G|---------------------------------------------------------------------------|
D|-6-6-6-7-6-6-6-7-6-6-6-7-6-6-7-7----6-6-6-7-6-6-6-7-6-6-6-7-6-6-7-7--------|

Right Guitar x 2
d|----|     |-----|     |----|     |-----|     |-----|     |-----|     |-----|
A|----|     |-----|     |----|     |-----|     |-----|     |-----|     |-----|
F|----|     |-----|     |----|     |-----|     |-----|     |-----|     |-----|
C|----|     |-----|     |----|     |-----|     |-----|     |-----|     |-----|
G|----|     |-----|     |----|     |-----|     |-----|     |-----|     |-----|
D|-6--| x12 |---2-| x12 |--8-| x12 |---0-| x12 |---2-| x12 |---7-| x12 |-----|

d|---------------------------------------------------------------------------|
A|---------------------------------------------------------------------------|
F|---------------------------------------------------------------------------|
C|------------------------------------8-8-8-9-8-8-8-9-8-8-8-9-8-8-9-9--------|
G|---------------------------------------------------------------------------|
D|-6-6-6-7-6-6-6-7-6-6-6-7-6-6-7-7-------------------------------------------|




Chorus

Left Guitar
d|-------------------------------------------------|       ||       |--------|
A|-------------------------------------------------|       ||       |--------|
F|----3-----5-----3-----5-----3-----5-----3-----5--|-4-----||-3-----|--------|
C|-2--3--2--5--2--3--2--5--2--3--2--5--2--3--2--5--|-4-----||-3-----|--------|
G|-2--1--2--3--2--1--2--3--2--1--2--3--2--1--2--3--|-2-x12-||-1-x12-|--------|
D|-0-----0-----0-----0-----0-----0-----0-----0-----|       ||       |--------|

Right Guitar
d|---------------------------------------------------------------------------|
A|---------------------------------------------------------------------------|
F|---12-11-9---12-11-9-12---12-11-9---12-11-9---12-11-9-12---12-11-9-11-10---|
C|---x--x--x---x--x--x-x----x--x--x---x--x--x---x--x--x-x----x--x--x-x--x----|
G|---10-9--7---10-9--7-10---10-9--7---10-9--7---10-9--7-10---10-9--7-9--8----|
D|-0---------0------------0---------0---------0------------0-----------------|



Outro
Both Guitars
d|---------------------------------|    |------------------------------------|
A|---------------------------------|    |------------------------------------|
F|---------------------------------|    |------------------------------------|
C|---------------------------------|    |------------------------------------|
G|-------6-------6-------6-----6-6-| x2 |------------------------------------|
D|-0-0-0---0-0-0---0-0-0---0-0-----|    |-0----------------------------------|

************************************

| /   slide up
| \   slide down
| h   hammer-on
| p   pull-off
| ~   vibrato
| +   harmonic
| x   Mute note
| b   Bend
| pb  Pre-bend
| br  Bend release
| pbr Pre-bend release
| brb Bend release bend

************************************
Добавлено: 04.09.2013
Другие материалы по этой песне:

Страница создана 20.06.2012
http://primanota.ru/ghost/prime-mover-chords.htm
Привет, Гость.
Предлагаем пройти революционный курс по гитаре.
Подарок от PrimaNota.Ru, забирай!