PrimaNota.ru - самый крупный в мире бесплатный архив песенных текстов, аккордов, табулатур и нот


Ghost - Satan Prayer - таба, бас-таба, видео

Регистрация Запомнить меня
Войти через:  Facebook Google Twitter Vk Yandex Mail.ru

Ghost - Satan Prayer - таба, бас-таба, видео

Печатать
Просмотров: 65
Новый альбом группы 'Черный Кузнец' по культовому сериалу 'Сверхъестественное'!
Satan Prayer

Standard Tuning, but tuned down one whole step

|: = repeat sign
:| = repeat sign
^ = hammer-on/pull-off
/ = slide up
\ = slide down
() = harmonics
x = string mute
^b = bend
qr = Quick Rest
T = tapping

pm
== = Palm Mute



INTRO/GUITAR ONE/alpha
d|------------------------------------------------------------------------
A|------------------------------------------------------------------------
F|--------------------------------------------------------------------9---
C|----------------------------------pm-----------------6^7^6--7--9/10-----
G|--------------7-6----2-3----------=======---7-8-7--8--------------------
D|---0-0-0-0-0-------0------0-3-4-1-0-0-0-0-0-----------------------------



INTRO/GUITAR ONE/alpha
d|------------------------------------------------------------------------
A|------------------------------------------------------------------------
F|------------------------------------------------------------------------
C|----------------------------------pm-----------------6^7^6--7--9/10-----
G|--------------7-6----2-3----------=======---7-8-7--8--------------------
D|---0-0-0-0-0-------0------0-3-4-1-0-0-0-0-0-----------------------------



INTRO/GUITAR TWO/omega
d|--------------------------------------------------------------------
A|--------------------------------------------------------------------
F|--------------9-8---------------------------------------------------
C|---------------------9-10-----5-6-----------------------------------
G|-------------------7--------7-----8-7-------------------------------
D|---0-0-0-0-0--------------------------------------------------------



INTRO/GUITAR TWO/omega
d|--------------------------------------------------------------------
A|--------------------------------------------------------------------
F|--------------------------------------------------------------------
C|--------------------------------------------------------------------
G|-------------10-9--6-7----------------------------------------------
D|---0-0-0-0-0---------------0-3-4--1--0------------------------------



VERSE, play twice
d||--------------------------------------------------------------||
A||:------------------------------------------------------------:||
F||--9-pm--9-----9--8-----8-----8--9-----9--------9-----9--------||
C||--9-===-9-===-9--8-===-8-===-8--9-===-9---9-9--9-===-9--9-9---||
G||:-7-7-7-7-7-7-7--6-6-6-6-6-6-6--7-7-7-7---7-7--7-7-7-7--7-7--:||
D||--------------------------------------------------------------||



VERSE
d|--------------------------------------------------------------------
A|--------------------------------------------------------------------
F|--9-pm--9-----9--8-----8-----8--3--3-3-3--7-------7-7--7-------7-7/8
C|--9-===-9-===-9--8-===-8-===-8--3--3-3-3--7-====--7-7--7-====--7-7/8
G|--7-7-7-7-7-7-7--6-6-6-6-6-6-6--1--1-1-1--5-5-5-5-5-5--5-5-5-5-5-5/6
D|------------------------------------------5-----5-5-5--5-----5-5-5--



VERSE
d|----------------------------------------------------------------
A|----------------------------------------------------------------
F|--9-pm--9-----9--8-----8-----8--9-----9--------9-----9----------
C|--9-===-9-===-9--8-===-8-===-8--9-===-9---9-9--9-===-9--9-9-----
G|--7-7-7-7-7-7-7--6-6-6-6-6-6-6--7-7-7-7---7-7--7-7-7-7--7-7-----
D|---------------------------------------------------------------



VERSE
d|--------------------------------------------------------------------
A|--------------------------------------------------------------------
F|---9-9-9----------------7-7-7--9-9-9--7-----------------------------
C|---9-9-9--5-5-5--9-9-9--7-7-7--9-9-9--8-----------------------------
G|---7-7-7--5-5-5--9-9-9--5-5-5--7-7-7--------------------------------
D|----------3-3-3--7-7-7----------------------------------------------




GUITAR ONE/alpha
d|------------------------------------------------------------------------
A|------------------------------------------------------------------------
F|--------------------------------------------------------------------9---
C|----------------------------------pm-----------------6^7^6--7--9/10-----
G|--------------7-6----2-3----------=======---7-8-7--8--------------------
D|---0-0-0-0-0-------0------0-3-4-1-0-0-0-0-0-----------------------------



GUITAR ONE/alpha
d|------------------------------------------------------------------------
A|------------------------------------------------------------------------
F|------------------------------------------------------------------------
C|----------------------------------pm-----------------6^7^6--7--9/10-----
G|--------------7-6----2-3----------=======---7-8-7--8--------------------
D|---0-0-0-0-0-------0------0-3-4-1-0-0-0-0-0-----------------------------



GUITAR TWO/omega
d|--------------------------------------------------------------------
A|--------------------------------------------------------------------
F|--------------9-8---------------------------------------------------
C|---------------------9-10-----5-6-----------------------------------
G|-------------------7--------7-----8-7-------------------------------
D|---0-0-0-0-0--------------------------------------------------------



GUITAR TWO/omega
d|--------------------------------------------------------------------
A|--------------------------------------------------------------------
F|--------------------------------------------------------------------
C|--------------------------------------------------------------------
G|-------------10-9--6-7----------------------------------------------
D|---0-0-0-0-0---------------0-3-4--1--0------------------------------




verse
d|-------------------------------------------------
A|-------------------------------------------------
F|-------------------------------------------------
C|-2-pm------2-------------5---------5-------------
G|-X-=======-X-===========-X-=======-X-===========-
D|-0-0-0-0-0-0-0-0-0-0-0-0-3-3-3-3-3-3-3-3-3-3-3-3-



verse
d|---------------------------------------------------
A|---------------------------------------------------
F|---------------------------------------------------
C|---2---------2-------------2---------2-------------
G|---X-=======-X-===========-X-=======-X-------------
D|---0-0-0-0-0-0-0-0-0-0-0-0-0-0-0-0-0-0-0-0-0-0-0-0-



verse
d|-------------------------------------------------
A|-------------------------------------------------
F|-------------------------------------------------
C|-2-pm------2-------------5---------5-------------
G|-X-=======-X-===========-X-=======-X-===========-
D|-0-0-0-0-0-0-0-0-0-0-0-0-3-3-3-3-3-3-3-3-3-3-3-3-



verse
d|---------------------------------------------------
A|---------------------------------------------------
F|---------------------------------------------------
C|---2---------2-------------2---------2-------------
G|---X-=======-X-===========-X-=======-X-------------
D|---0-0-0-0-0-0-0-0-0-0-0-0-0-0-0-0-0-0-0-0-0-0-0-0-




VERSE
d|----------------------------------------------------------------------
A|----------------------------------------------------------------------
F|-------------------------8---------8---------9--3---------3---------3-
C|---pm--------------------X-=======-X-=======-X--X-=======-X-=======-X-
G|-7-=======-7-===========-6-6-6-6-6-6-6-6-6-6-6--1-1-1-1-1-1-1-1-1-1-1-
D|-0-0-0-0-0-0-0-0-0-0-0-0----------------------------------------------



VERSE
d|--------------------------------------------------------------------
A|--------------------------------------------------------------------
F|-7-----------7---------------7-----------7-----------7/8------------
C|-X--=======--X--===========--X--=======--X--=======--X/X------------
G|-5--5-5-5-5--5--5-5-5-5-5-5--5--5-5-5-5--5--5-5-5-5--5/6------------
D|--------------------------------------------------------------------



VERSE
d|-------------------------------------------------
A|-------------------------------------------------
F|-------------------------------------------------
C|-2-pm------2-------------5---------5-------------
G|-X-=======-X-===========-X-=======-X-===========-
D|-0-0-0-0-0-0-0-0-0-0-0-0-3-3-3-3-3-3-3-3-3-3-3-3-



VERSE
d|---------------------------------------------------
A|---------------------------------------------------
F|---------------------------------------------------
C|---2---------2-------------2---------2-------------
G|---X-=======-X-===========-X-=======-X-------------
D|---0-0-0-0-0-0-0-0-0-0-0-0-0-0-0-0-0-0-0-0-0-0-0-0-



VERSE/GUITAR ONE
d|-------------------------------------------------------------------------------------------
A|-------------------------------------------------------------------------------------------
F|----------------------------------------------------------------------7---------7---------7
C|-2-pm------2---------2---5---------5---------5/9---------9---------9--X-=======-X-=======-X
G|-X-=======-X-=======-X-=-X-=======-X-=======-X/X-=======-X-=======-X--5-5-5-5-5-5-5-5-5-5-5
D|-0-0-0-0-0-0-0-0-0-0-0-0-3-3-3-3-3-3-3-3-3-3-3/7-7-7-7-7-7-7-7-7-7-7-----------------------



VERSE/GUITAR ONE
d|--------------------------------------------------------------------
A|--------------------------------------------------------------------
F|---9-9-9---7--------------------------------------------------------
C|---9-9-9---8--------------------------------------------------------
G|---7-7-7---8--------------------------------------------------------
D|-----------6--------------------------------------------------------



VERSE/GUITAR TWO
d|-----------------------------------------------------------------------------
A|-----------------------------------------------------------------------------
F|-------------------------7---------7--------------7---------7----------------
C|-2-pm------2-------------X-=======-X-===========--X-=======-X-=======--4^5^4-
G|-X-=======-X-===========-5-5-5-5-5-5-5-5-5-5-5-5--5-5-5-5-5-5-5-5-5-5--------
D|-0-0-0-0-0-0-0-0-0-0-0-0-----------------------------------------------------



VERSE/GUITAR TWO
d|--------------------------------------------------------------------
A|--pm----------------------------------------------------------------
F|--=======-----=======------9--9--9----------------------------------
C|--4-4-4-4--4--4-4-4-4--4---X--X--X---8------------------------------
G|---------------------------7--7--7---X------------------------------
D|-------------------------------------6------------------------------



CHORUS, GUITAR ONE PLAY THREE TIMES
d||----------------------------------------------||
A||:---10-------------8------------6--------5---:||
F||-----9------9------7------7-----5-----5--4----||
C||-----7------6------5------4-----3-----2--2----||
G||:--=------=------=------=-----=-----=--------:||
D||---0------0------0------0-----0-----0---------||



CHORUS, GUITAR ONE 
d|-------------------------------------------------
A|-----10-------------8------------6---------------
F|------9------9------7------7-----5-----5---------
C|------7------6------5------4-----3-----2---------
G|----=------=------=------=-----=-----=-----------
D|----0------0------0------0-----0-----0-----------



CHORUS, GUITAR ONE PLAY TWO TIMES
d||------------------------------------------------------------------------||
A||:----------------------------------------------------------------------:||
F||------------------------------------------------------------------------||
C||----pm------------------------------------------------------------------||
G||:---=======------------=======-----------=======-----------------------:||
D||----1-1-1-1--2-3-4-5---1-1-1-1--2-3-4-5--1-1-1-1--2-3-4-5---0-1-2-3-4---||




CHORUS, GUITAR TWO
d|------------------------------0-0--------------------(12)-------
A|---------------------harm.(5)-----------------------------------
F|--9-9--------9-9-----------------------(7)-------(9)------------
C|-------------------------------------------(7)------------------
G|----------------------------------------------------------------
D|----------------------------------------------------------------



CHORUS, GUITAR TWO
d|-------------------------------------------------
A|-----10-------------8------------6--------5------
F|------9------9------7------7-----5-----5--4------
C|------7------6------5------4-----3-----2--2------
G|----=------=------=------=-----=-----=-----------
D|----0------0------0------0-----0-----0-----------



CHORUS, GUITAR TWO
d|-------------------------------------------------
A|-----10-------------8------------6---------------
F|------9------9------7------7-----5-----5---------
C|------7------6------5------4-----3-----2---------
G|----=------=------=------=-----=-----=-----------
D|----0------0------0------0-----0-----0-----------



CHORUS, GUITAR TWO
d||------------------------------------------------------------------------||
A||:----------------------------------------------------------------------:||
F||------------------------------------------------------------------------||
C||----pm------------------------------------------------------------------||
G||:---=======------------=======-----------=======-----------------------:||
D||----1-1-1-1--2-3-4-5---1-1-1-1--2-3-4-5--1-1-1-1--2-3-4-5---0-1-2-3-4---||



SOLO
d|------------------------------------------------------------------12------12----------------
A|-------------------------7-8---11^b--11^b-11---8-7-8^7\5-----15^b----15^b------15-12^15^15--
F|-----------------------9--------------------------------------------------------------------
C|-------------------8-9----------------------------------------------------------------------
G|--7-7--7/10-13-10---------------------------------------------------------------------------
D|--------------------------------------------------------------------------------------------



SOLO
d|-15-14-------------0-------0-------0-------0------------------------------------------------
A|---------------------10-12---15-12---15-13---15-13-12----13-12------------------------------
F|-------12-11^12^14------------------------------------14------------------------------------
C|--------------------------------------------------------------------------------------------
G|-------------------------------------------------------------------0-1--2-------------------
D|----------------------------------------------------------------------------3-2--0----------



GUITAR UNDER SOLO, PLAY TWICE
d||--------------------------------------------------------------||
A||:------------------------------------------------------------:||
F||--9-pm--9-----9--8-----8-----8--9-----9--------9-----9--------||
C||--9-===-9-===-9--8-===-8-===-8--9-===-9---9-9--9-===-9--9-9---||
G||:-7-7-7-7-7-7-7--6-6-6-6-6-6-6--7-7-7-7---7-7--7-7-7-7--7-7--:||
D||--------------------------------------------------------------||



GUITAR UNDER SOLO
d|--------------------------------------------------------------------
A|--------------------------------------------------------------------
F|--------------------------------------------------------------------
C|------9---------12-----------7-----9----5-5-5--12-12-12-------------
G|----7----7---10--------9---5-----7------3-3-3--10--9-10--9-9-9------
D|---------------------7-----------------------------------7-7-7------



"Unholy ghost, Overlord, and taker of life..."
d|------0-------3-----------------------------------------------------
A|--------------3-----7--7^8-7---5------------------------------------
F|--------------4-----7--7---7---9----7-------------------------------
C|------------X-5---X-9------0---9----8-------------------------------
G|------------X-----X------------7----8-------------------------------
D|---0------3---------------------------------------------------------



CHORUS, GUITAR ONE, PLAY 7 Xs
d||----------------------------------------------||
A||:---10-------------8------------6--------5---:||
F||-----9------9------7------7-----5-----5--4----||
C||-----7------6------5------4-----3-----2--2----||
G||:--=------=------=------=-----=-----=--------:||
D||---0------0------0------0-----0-----0---------||



CHORUS, GUITAR ONE 
d|-------------------------------------------------
A|-----10-------------8------------6---------------
F|------9------9------7------7-----5-----5---------
C|------7------6------5------4-----3-----2---------
G|----=------=------=------=-----=-----=-----------
D|----0------0------0------0-----0-----0-----------



CHORUS, GUITAR ONE PLAY TWO TIMES
d||---------------------------------------
A||:--------------------------------------
F||---------------------------------------
C||----pm---------------------------------
G||:---=======----------------------------
D||----1-1-1-1--2-3-4-5----0-1-2-3-4--0---END




CHORUS, GUITAR TWO
d|-----------------------------------------------------------------------
A|-----------------------------------------------------------------------
F|-----------------------------------------------------------------------
C|-PM--------------------------------------------------------------------
G|-=====================================================================-
D|-0-0-0-0--0-0-0-0--0-0-0-0--0-0-0-0--0-0-0-0--0-0-0-0--7-7-7-7-7-7-7-7-



CHORUS, GUITAR TWO
d|-----------------------------------------------------------------------
A|-----------------------------------------------------------------------
F|-----------------------------------------------------------------------
C|-PM--------------------------------------------------------------------
G|-=====================================================================-
D|-0-0-0-0--0-0-0-0--0-0-0-0--0-0-0-0--0-0-0-0--0-0-0-0--7-7-7-7-7-7-7-7-




CHORUS, GUITAR ONE, PLAY 5 Xs
d||----------------------------------------------||
A||:---10-------------8------------6--------5---:||
F||-----9------9------7------7-----5-----5--4----||
C||-----7------6------5------4-----3-----2--2----||
G||:--=------=------=------=-----=-----=--------:||
D||---0------0------0------0-----0-----0---------||



CHORUS, GUITAR ONE 
d|-------------------------------------------------
A|-----10-------------8------------6---------------
F|------9------9------7------7-----5-----5---------
C|------7------6------5------4-----3-----2---------
G|----=------=------=------=-----=-----=-----------
D|----0------0------0------0-----0-----0-----------



CHORUS, GUITAR ONE PLAY TWO TIMES
d||---------------------------------------
A||:--------------------------------------
F||---------------------------------------
C||----pm---------------------------------
G||:---=======----------------------------
D||----1-1-1-1--2-3-4-5----0-1-2-3-4--0---END





Добавлено: 14.06.2018
Другие материалы по этой песне:

Страница создана 23.07.2012
http://primanota.ru/ghost/satan-prayer-chords.htm
Привет, Гость.
Предлагаем пройти революционный курс по гитаре.
Подарок от PrimaNota.Ru, забирай!