PrimaNota.ru - самый крупный в мире бесплатный архив песенных текстов, аккордов, табулатур и нот


Ghost - Mummy Dust - таба, бас-таба, видео

Регистрация Запомнить меня
Войти через:  Facebook Google Twitter Vk Yandex Mail.ru

Ghost - Mummy Dust - таба, бас-таба, видео

Печатать
Просмотров: 92
Новый альбом группы 'Черный Кузнец' по культовому сериалу 'Сверхъестественное'!
Mummy Dust

Standard Tuning, 
but tuned down one whole step,
THEN TUNE DOWN TO DROP-D!
 (which would technically make it Drop-C, so...)

|: = repeat sign
:| = repeat sign
^ = hammer-on/pull-off
/ = slide up
\ = slide down
() = harmonics
x = string mute
^b = bend
qr = Quick Rest
T = tapping

pm
== = Palm Mute



INTRO 7 Xs
d||-----------------------|| -------------
A||:---------------------:|| -------------
F||-----------------------|| -------------
C||--pm-------------------|| -------------
G||:-=====--===========--:|| --------14\--
C||--2-2-2--2-2-2-2-2-2---|| --2-2-2-14\--



Play twice
d||------------------------------------------------------------------------||
A||:----------------------------------------------------------------------:||
F||--------------------------------------7---6-----------------------------||
C||-------------pm---------------------5---5-----pm------------------------||
G||:--2^1-------=====================------------=====================----:||
C||-------5-3\2-2-2-2-2-2-2-2-2-2-2-2------------2-2-2-2-2-2-2-2-2-2-2-----||



Play twice
d||----------------------------------------------------------------||  ---------
A||:--------------------------------------------------------------:||  ---------
F||----------------------------------------------------4-----------||  ---------
C||------------pm----------7-pm----------7-pm----------2--pm-------||  -----4-3-
G||:-2^1-------===========-5-===========-4-===========----=====---:||  -4/5-2-1-
C||------5-3\2-2-2-2-2-2-2---2-2-2-2-2-2---2-2-2-2-2-2----2-2-2----||  -4/5-----



VERSE, PLAY 4 TIMES
d||-------------------------------------|| -------
A||:-----------------------------------:|| -------
F||-----------pm------------------------|| -------
C||-------4-3-=====--3-=====--3-=====---|| -----4-
G||:--4/5-2-1-1-1-1--1-1-1-1--1-1-1-1--:|| -4-5-2-
C||---4/5-------------------------------|| -4-5---



CHORUS
d|--------------------------------------------------------------------
A|--------------------------------------------------------------------
F|--------------------3-2---------------------------------------------
C|---3--6-----0-------0-0---------------------------------------------
G|---1--4--6--0---------------------1-1---------1---------------------
C|---------6--0------------------0------0-1-1-0----1------------------



Play twice
d||------------------------------------------------------------------------||---------
A||:----------------------------------------------------------------------:||---------
F||--------------------------------------7---6-----------------------------||---------
C||-------------pm---------------------5---5-----pm------------------------||-----4-3-
G||:--2^1-------=====================------------=====================----:||-4/5-2-1-
C||-------5-3\2-2-2-2-2-2-2-2-2-2-2-2------------2-2-2-2-2-2-2-2-2-2-2-----||-4/5-----



VERSE, PLAY 4 TIMES
d||-------------------------------------|| -------
A||:-----------------------------------:|| -------
F||-----------pm------------------------|| -------
C||-------4-3-=====--3-=====--3-=====---|| -----4-
G||:--4/5-2-1-1-1-1--1-1-1-1--1-1-1-1--:|| -4-5-2-
C||---4/5-------------------------------|| -4-5---



CHORUS
d|--------------------------------------------------------------------
A|--------------------------------------------------------------------
F|--------------------3--2------------------3-------------------------
C|---3--6-----0-------0--0------------------0-------------------------
G|---1--4--6--0-------------------------------------------------------
C|---------6--0------------------0------------------------------------



CHORUS
d|--------------------------------------------------------------------
A|--------------------------------------------------------------------
F|--------------------3---2-------------------------------------------
C|---3--6-----0-------0---0-------------------------------------------
G|---1--4--6--0---------------------1-1---------1---------------------
C|---------6--0------------------0------0-1-1-0----1------------------



Guitar under solo, play twice
d||---------------------------------------------------------------------------------||
A||:-------------------------------------------------------------------------------:||
F||---------------------------------------------------------------------------------||
C||-----------------pm--------------------------------------------------------------||
G||:--2--1----------=============================================================--:||
C||---------5--3\2--2-2-2-2--2-2-2-2--2-2-2-2--2-2-2-2--2-2-2-2--2-2-2-2--2-2-2-2---||



Play twice
d||----------------------------------------------------------------||  ---------
A||:--------------------------------------------------------------:||  ---------
F||----------------------------------------------------4-----------||  ---------
C||------------pm----------7-pm----------7-pm----------2--pm-------||  -----4-3-
G||:-2^1-------===========-5-===========-4-===========----=====---:||  -4/5-2-1-
C||------5-3\2-2-2-2-2-2-2---2-2-2-2-2-2---2-2-2-2-2-2----2-2-2----||  -4/5-----




VERSE, PLAY 6 TIMES
d||-------------------------------------|| -------
A||:-----------------------------------:|| -------
F||-----------pm------------------------|| -------
C||-------4-3-=====--3-=====--3-=====---|| -----4-
G||:--4/5-2-1-1-1-1--1-1-1-1--1-1-1-1--:|| -4-5-2-
C||---4/5-------------------------------|| -4-5---



CHORUS
d|--------------------------------------------------------------------
A|--------------------------------------------------------------------
F|--------------------3--2------------------3-------------------------
C|---3--6-----0-------0--0------------------0-------------------------
G|---1--4--6--0-------------------------------------------------------
C|---------6--0------------------0------------------------------------



CHORUS/OUTRO
d|--------------------------------------------------------------------------------------------
A|--------------------------------------------------------------------------------------------
F|--------------------------------------------------------------------------------------------
C|---3--6-----0-----pm------------------------------------------------------------------------
G|---1--4--6--0-----===============--=====---===========--=====--===========--=====--===------
C|---------6--0-----0-0-0-0-0-0-0-0--0-0-0---0-0-0-0-0-0--0-0-0--0-0-0-0-0-0--0-0-0--0-0------



OUTRO, PLAY THREE TIMES
d||---------------------------------------------------------------------------------||---------
A||:-------------------------------------------------------------------------------:||---------
F||---------------------------------------------------------------------------------||---------
C||---=-------PM--------------------------------------------------------------------||-=-------
G||:--0-=-=-=-===============--=====--===========--=====--===========--=====--===--:||-0-=-=-=-
C||-----3-2-1-0-0-0-0-0-0-0-0--0-0-0--0-0-0-0-0-0--0-0-0--0-0-0-0-0-0--0-0-0--0-0---||---3-2-1-



OUTRO
d|-------------------------------------------------------------------------------------------
A|-------------------------------------------------------------------------------------------
F|----PM-------------------------------------------------------------------------------------
C|----==============----=========-----=========----===========================---------------
G|----0-0-0--0-0-0-0--5-0-0-0-0-0--5--0-0-0-0-0--5-0-0-0-0-0-0-0-0-0-0-0-0-0-0---------------
C|----0-0-0--0-0-0-0----0-0-0-0-0-----0-0-0-0-0----0-0-0-0-0-0-0-0-0-0-0-0-0-0---------------



OUTRO
d|-------------------------------------------------------------
A|-------------------------------------------------------------
F|----PM-------------------------------------------------------
C|----=========-----=========----===========================---
G|--5-0-0-0-0-0--5--0-0-0-0-0--5-0-0-0-0-0-0-0-0-0-0-0-0-0-0---
C|----0-0-0-0-0-----0-0-0-0-0----0-0-0-0-0-0-0-0-0-0-0-0-0-0---



OUTRO
d|----------------------------------------------------------------
A|--------------------------------------------PM----------------3-
F|----PM--------------------------------------=====--5----------2-
C|----=========-----=========----===========--0-0-0--5------5---0-
G|--5-0-0-0-0-0--5--0-0-0-0-0--5-0-0-0-0-0-0--0-0-0--3--===-5---0-
C|----0-0-0-0-0-----0-0-0-0-0----0-0-0-0-0-0--0-0-0-----0-0-5---0-


Добавлено: 14.06.2018
Другие материалы по этой песне:
  • Аккорды и текст

Страница создана 03.02.2018
http://primanota.ru/ghost/mummy-dust-chords.htm
Привет, Гость.
Предлагаем пройти революционный курс по гитаре.
Подарок от PrimaNota.Ru, забирай!