PrimaNota.ru - самый крупный в мире бесплатный архив песенных текстов, аккордов, табулатур и нот


Ghost - Stand By Him - текст песни, таба, бас-таба, видео

Регистрация Запомнить меня
Войти через:  Facebook Google Twitter Vk Yandex Mail.ru

Ghost - Stand By Him - текст песни, таба, бас-таба, видео

Печатать
Просмотров: 294
Уроки эстрадного вокала в Санкт-Петербурге
'STAND BY HIM' by Ghost
Album: Opus Eponymous
Submitted by: Victor (vctrklndr[a]hotmail.com)

Tuning: 1 step down (D G C F A D)

Listen to the song for correct timing etc. 
Sorry for not including the fast solo. Since I don't own an electric guitar
anymore, I transcribe all my tabs with an acoustic guitar. Enjoy!

Intro:

GTR I
e|----------------------|
B|----------------------|
G|----12-12-9-----9-9-7-|
D|----------------------|
A|----10-10-7-----7-7-5-| x4
E|-0-0--0-----0-0--0----|

GTR II
e|----------------------|
B|----------------------|
G|----------------------|
D|----------------------|
A|-2-2--2--2-2--2-------| x4
E|-0-0--0--0-0--0-7-7-6-|

Verse

GTR I
   Devil's power   ....   one
e|---------------------------------------------|
B|---------------------------------------------|
G|---------------------------12-12-9-----9-9-7-|
D|---------------------------------------------|
A|-2-2--2--2-2--2------------10-10-7-----7-7-5-| 
E|-0-0--0--0-0--0-7-7-6---0-0--0-----0-0--0----|

GTR II
e|---------------------------------------------|
B|---------------------------------------------|
G|---------------------------------------------|
D|---------------------------------------------|
A|-2-2--2--2-2--2---------2-2--2--2-2--2-------| 
E|-0-0--0--0-0--0-7-7-6---0-0--0--0-0--0-7-7-6-|


Pre-chorus:

  The witch hammer...

e|-------------------------|
B|-------------------------|
G|-------------------------|
D|-------------------------|
A|-----------4-----------4-| x2
E|-3-3-3-3-3----3-3-3-3----|


Chorus:

   F               Eb    Bb      F               Eb    Bb
   It is the...
e|----------------------------------------------------------|
B|----------------------------------------------------------|
G|------10------10-----8-------------10------10-----8-------|
D|---10------10------8-------8----10------10------8-------8-|
A|-8-------8-------6-------8----8-------8-------6-------8---|
E|-----------------------6----------------------------6-----|

   Bb           Ab    Eb    F                Eb Bb
e|------------------------------------------------|
B|------------------------------------------------|
G|------------------------8------10------10--8----|
D|-----8-----8------6---8-----10------10-----8--8-|
A|---8-----8------6---6-----8-------8--------6--8-|
E|-6-----6------4-------------------------------6-|

F                            Eb  Bb
It is the night of the witch
F                            Eb     Bb
It is the night of the witch tonight
        Bb                       Ab          Eb        F     Eb Bb
And the vengeance is hers for as long as she stands by him


GTR II during solo:

e|------------------------------------|
B|------------------------------------|
G|------------------------------------|
D|------------------------------------|
A|-2----------9----------2----------8-|
E|-0----------7----------0----------6-|

e|-----------------------------------------------------------------|
B|-----------------------------------------------------------------|
G|-----------------------------------------------------------------|
D|-----------------------------------------------------------------|
A|-----------------------------------------------------------------|
E|-0-0-0-0-0-0-0-0-8-8-8-8-8-8-8-8-7-7-7-7-7-7-7-7-6-6-6-6-6-6-6-6-|

Bridge:

e|------------------------------------------------------|
B|------------------------------------------------------|
G|------------------------------------------------------|
D|-----4-----6-----4--------------4-----6-----4---------|
A|-5-5-2-3-3-4-5-5-2-3-3-3-2--5-5-2-3-3-4-5-5-2-3-3-3-2-|
E|-3-3---1-1---3-3---1-1-1-0--3-3---1-1---3-3---1-1-1-0-|

e|----------------------------|
B|----------------------------|
G|----------------------------|
D|----------------------------|
A|----------------------------| x4
E|-0-0-0-0-0-0-0-0-0-0--7-7-6-|

e|-------------------------|
B|-------------------------|
G|-------------------------|
D|-------------------------|
A|-----------4-----------4-| x2
E|-3-3-3-3-3----3-3-3-3----|


Outro solo:
(Chorus chords played during outro)

e|-----------------------------------------------------------------------------------------|
B|------------------------------------------------------------------8h9p8------------------|
G|----------------8-------------------8--------------------10-8--10-------10--------8-10-7-|
D|-10p8------10p8--10--10p8------10p8--10--11p10-8----10-8-------------------10--10--------|
A|------11-8----------------11-8-------------------8---------------------------------------|
E|-----------------------------------------------------------------------------------------|

  GTR I
e|-------------------------------------------------------------------------------------------|
B|------------------------------------------------------------------8h9p8------------------9-|
G|----------------8-------------------8--------------------10-8--10-------10--------8----8---|
D|-10p8------10p8--10--10p8------10p8--10--11p10-8----10-8-------------------10--10---10-----|
A|------11-8----------------11-8-------------------8-----------------------------------------|
E|-------------------------------------------------------------------------------------------|

  GTR II
e|-------------------------------------------------------------------------------------------|
B|-------------------------------------------------------------------------------------------|
G|-------------------------------------------------------------------------------------------|
D|-------------------------------------------------------------8-------8h10p8------------8-9-|
A|------------------------------------------8------8--10-11-10---10-11--------11-10-8-10-----|
E|--------------------------------------------11-9-------------------------------------------|


Intro
Verse
Pre-chorus
Verse
Pre-chorus
Chorus
Solo
Bridge
Verse
Pre-chorus
Chorus

************************************

| /   slide up
| \   slide down
| h   hammer-on
| p   pull-off
| ~   vibrato
| +   harmonic
| x   Mute note
| b   Bend
| pb  Pre-bend
| br  Bend release
| pbr Pre-bend release
| brb Bend release bend

************************************
Добавлено: 20.05.2012
Другие материалы по этой песне:

Страница создана 20.05.2012
http://primanota.ru/ghost/stand-by-him-chords.htm
Привет, Гость.
Предлагаем пройти революционный курс по гитаре.
Подарок от PrimaNota.Ru, забирай!